Oops, an error
Loading. Please wait.

The Way I Am Tab

version 7
version 7

Interactive

20,457 views 30 this week
no commentswrite comment
1 2 3 4 5
excellent!
x 17
add to favorites
launch autoscroll
font size
0
reset
how to read this tab
guitar tuner
Autoscroll
slow
fast
+/-
esc
set tempo
stop
Help us to improve Ultimate-Guitar.com Take our survey!
×
Author
Artist: Ingrid Michaelson
Song: The Way I Am (Live on WERS)
Album: Be Okay

Tabber: Danny North
Email: dnorth2@hotmail.com

This is taken from the Be Okay album, the version says (Live at WERS)and it's
just one guitar at standard tuning. 

Great song! Great to play acoustically! The "x"s represent a little slap on
the strings where you're playing the bass note. It's not so prominent in some
of the slaps but it's pretty much always there. Listen to the song for actual
rhythm and timing.

Leave me any comments or corrections!

INTRO
e|-----------|-----------|-----------|------------|
B|-----------|-----------|-----------|------------|
G|-----------|-----------|-----------|------------|
D|-----------|-----------|-----------|------------|
A|-----------|-0-1-x-1-x-|-5-x-5--x--|-3-x-3------|
E|-1-x-1--x--|-----------|-----------|---------0--|

VERSE
|-----------|-----------|-----------|------------|
|-----------|-----------|-----------|------------|
|-----------|-----------|-----------|------------|
|-----------|-----------|-----------|------------|
|-----------|-0-1-x-1-x-|-5-x-5--x--|-3-x-3------|
|-1-x-1--x--|-----------|-----------|---------0--|

|-----------|-----------|-----------|------------|
|-----------|-----------|-----------|------------|
|-----------|-----------|-----------|------------|
|-----------|-----------|-----------|------------|
|-----------|-0-1-x-1-x-|-5-x-5--x--|-3-x-3---0--|
|-1-x-1--x--|-----------|-----------|------------|


CHORUS
|------------|------------|------------|------------|
|------------|------------|------------|------------|
|------------|------------|------------|------------|
|------------|------------|------------|------------|
|-1-x-1---x--|-3-x-3-x----|------------|-5-x-5------|
|------------|------------|-1-x-1--x---|---------4--|

|------------|----------|-----------|-----------|
|------------|----------|-----------|-----------|
|------------|----------|-----------|-----------|
|------------|----------|-----------|-----------|
|---------3--|-4-------3|-----------|-----------|
|-3-x-3------|----------|-0-1-x--1-x|-1-x-1-----|


VERSE
|-----------|-----------|-----------|------------|
|-----------|---6---6---|-6---6-----|-5---5------|
|-2---2-----|---7---7---|-5---5-----|-0---0------|
|-3---3-----|-----------|-0---0-----|------------|
|-----------|-----x---x-|---x----x--|-3-x-3------|
|-1-x-1--x--|---6---6---|-----------|---------0--|

|-----------|-----------|-----------|------------|
|-----------|---6---6---|-6---6-----|-5---5------|
|-2---2-----|---7---7---|-5---5-----|-0---0------|
|-3---3-----|-----------|-0---0-----|------------|
|-----------|-----x---x-|---x----x--|-3-x-3---0--|
|-1-x-1--x--|---6---6---|-----------|------------|




CHORUS
|------------|------------|------------|------------|
|-3---3------|------------|------------|-6---6------|
|-3---3------|-5---5------|-2---2------|-5---5------|
|------------|-5---5------|-3---3------|-0---0------|
|-1-x-1---x--|-3-x-3-x----|------------|---x--------|
|------------|------------|-1-x-1------|---------4--|

|------------|----------|-----------|-1---------|-----------|
|------------|----------|-----------|-----------|-----------|
|-3---3------|-6--------|---2----2--|-----------|-----------|
|-3---3------|-6--------|---3----3--|-----------|-----------|
|---------3--|-4-------3|-----------|-----------|-0--3------|
|-3-x-3------|----------|-0-1-x--1--|---x-0-1--3|-----------|


VERSE
|----------1|-----------|-----------|------------|
|-----------|---6---6---|-6---6-----|-5---5------|
|-2---2-----|---7---7---|-5---5-----|-0---0------|
|-3---3-----|-----------|-0---0-----|------------|
|-----------|-----x---x-|---x----x--|-3-x-3------|
|-1-x-1--x--|---6---6---|-----------|---------0--|

|-----------|-----------|-----------|------------|
|-----------|---6---6---|-6---6-----|-5---5------|
|-2---2-----|---7---7---|-5---5-----|-0---0------|
|-3---3-----|-----------|-0---0-----|------------|
|-----------|-----x---x-|---x----x--|-3-x-3---0--|
|-1-x-1--x--|---6---6---|-----------|------------|


CHORUS/OUTRO
|------------|------------|----------1-|------------|
|-3---3------|------------|------------|-6---6------|
|-3---3------|-5---5------|-2---2------|-5---5------|
|------------|-5---5------|-3---3------|-0---0------|
|-1-x-1---x--|-3-x-3-x----|------------|---x--------|
|------------|------------|-1-x-1------|---------4--|

|------------|----------|----------5|-----------|
|------------|----------|---6---6---|---5-------|
|-3---3------|-6----6---|---7---7---|---5-------|
|-3---3------|-6----6---|---7-x-7---|-----------|
|---------3--|-4-x--4---|---5---5---|-----------|
|-3-x-3------|----------|-----------|x--5-------|

|-------------|-------------|----------5|-----------|-----------|
|-------------|-------------|---6---6---|---3---3---|-----------|
|-5-4-3---3---|----6----6---|---7---7---|---0---0---|-3---3-----|
|-5-4-3---3---|----6----6---|---7-x-7---|x----x-----|-3---3-----|
|-------------|3---4-x--4---|---5---5---|---2---2--0|-1---1---3-|
|-5-4-3-x-3---|-------------|-----------|-----------|---x-------|

|------------|----------|-------------|
|------------|----------|-------------|
|-----6------|----------|-------2~----|
|---6--------|----------|----3~-------|
|-4----------|-3--------|-------------|
|------------|----------|-1~----------|

LYRICS

Ingrid Michaelson- The Way I Am
If you were falling, then I would catch you.
You need a light, I'd find a match.

Cause I love the way you say good morning.
And you take me the way I am.

If you are chilly, here take my sweater.
Your head is aching, I'll make it better.

Cause I love the way you call me baby.
And you take me the way I am.

I'd buy you Rogaine when you start losing all your hair.
Sew on patches to all you tear.

Cause I love you more than I could ever promise.
And you take me the way I am.
You take me the way I am.
You take me the way I am.
Suggest correction
What's this?
You can suggest a correction to this tab. Community and Mods will review your correction and vote to approve or reject it.
comments
print report bad tab
guest
You may want to rate the tab now too:
select rating
Please do not post tabs as comments. Select "correction" instead!