Oops, an error
Loading. Please wait.

Tu Eres Mi Respirar Tab

62 views 1 this week
no commentswrite comment
1 2 3 4 5
3 more votes to show rating
add to favorites
launch autoscroll
font size
0
reset
how to read this tab
guitar tuner
×
Best way to learn
"Tu Eres Mi Respirar"
Autoscroll
slow
fast
+/-
esc
set tempo
stop
INTRO:

e:|----1/6-6-------------------------:
B:|--3-------4-4---------------------:
G:|----------------------------------:X2
D:|----------------------------------:


Bb                Eb
  //Tu eres mi respirar//


e:|----1-1---------------------------:
B:|--3-------------------------------:
G:|----------------------------------:
D:|----------------------------------:

Bb    F/A        Gm  Gm7
  Dios tu presencia
   Eb   Gm     F
  Vive      en MI.

e:|------1-3-1-----------------------:
B:|--3/4-----------------------------:
G:|----------------------------------:
D:|----------------------------------:

Bb             Eb
  /Tú eres mi pan Señor/

e:|--6/10-10/11-10-------------------:
B:|----------------------------------:
G:|----------------------------------:
D:|----------------------------------:

Bb             Eb
  /Tú eres mi pan Señor/

e:|--------5/6-5---------------------:
B:|--3/4-6---------------------------:
G:|----------------------------------:
D:|----------------------------------:


    Bb    F/A       Gm  Gm7
   Dios tus palabras
    Eb      Gm    F
  Fluyen     en MI.
      Bb   F/A  Gm     Dm       Eb     Gm   F
//Y yo               te anhelo, Señor.
   G   G/B Am    Em        F     Am   G
  Estoy         perdido sin ti.//

Final
               F    Am  G
//Perdido Sin ti//
                F    Am  G
//Te anhelo Señor//


KIERO KE  SEPAN KE  ES  MI SEGUNDA TRANSCRIPCION
Y COMO VERAN  TODAVIA  ME  FALTA  SACAR ALGUNAS
COSAS POR AHÍ.
BUENO ESO ESTODO ESPERO KE  LES  SIRVA
Suggest correction
Give kudos to tab author, rate the tab!
1 2 3 4 5
comments
print report bad tab
guest
You may want to rate the tab now too:
select rating
Wanna post a correction for this tab? Suggest correction