Oops, an error
Loading. Please wait.

World A Reggae Bass

292 views 12 this week
no commentswrite comment
1 2 3 4 5
x 4
add to favorites
launch autoscroll
font size
0
reset
guitar tuner
Autoscroll
slow
fast
+/-
esc
set tempo
stop
Author
Difficulty
novice
About this tab version
The original reggae master Ini at work. Watch the timing of the second riff. Was this info helpful? Yes No
This is repeated all the way through, watch out for the timing and enjoy!

G|-----------|-------------|
D|-----------|-------------|
A|-----------|---4---------|
E|-2-5-4-2---|-----5-4-2---|

G|-----------|-------------|
D|-----------|-------------|
A|-----------|---4---------|
E|---5-4-2---|-----5-4-2---|

G|-----------|-------------|
D|-----------|-------------|
A|-----------|---4---------|
E|---5-4-2---|-----5-4-2---|

G|-----------|-------------|
D|-----------|-------------|
A|-----------|---4---------|
E|---5-4-2---|-----5-4-2---|

G|-----------|-------------|
D|-----------|-------------|
A|-----------|---4---------|
E|---5-4-2---|-----5-4-2---|

G|-----------|-------------|
D|-----------|-------------|
A|-----------|---4---------|
E|---5-4-2---|-----5-4-2---|

G|-----------|-------------|
D|-----------|-------------|
A|-----------|---4---------|
E|---5-4-2---|-----5-4-2---|

That is all you need
Suggest correction
comments
print report bad tab
guest
You may want to rate the tab now too:
select rating
Wanna post a correction for this tab? Suggest correction