Oops, an error
Loading. Please wait.

Desiderated Profligacy Tab

767 views 1 this week
1 commentread comment
1 2 3 4 5
excellent!
x 3
add to favorites
launch autoscroll
font size
0
reset
how to read this tab
guitar tuner
Autoscroll
slow
fast
+/-
esc
set tempo
stop
Help us to improve Ultimate-Guitar.com Take our survey!
×
DESIDERATED PROFLIGACY - Iniquity - The Hidden Lore

Rhythm Guitar Transcribed on Bass
Tuning (Low - High): B E A D G B

Sample containing lots of expletives ;)
Drums

Intro                                   Guitar 1 (Left Channel)
|----------------------------------------------|
|-----------------------------7777-----Ah------|
|-------------------------5555----8888-7---5-3-|
|-0-0-0-0-3h4-0-0-0-0-3h4------------------3-1-|
| . . . .     . . . .                      pmh
|                                       Guitar 2 (Right Channel)
|----------------------------------------------|
|----------------------------------------------|
|------------------------------------------5-3-|
|-0-0-0-0-3h4-0-0-0-0-3h4------------------3-1-|
  . . . .     . . . .                      pmh

                                           Guitar 1 (Left Channel)
|----------------------------------------------Ah-|
|-----------------------------7777-------------6--|
|-------------------------5555----888877775555----|
|-0-0-0-0-3h4-0-0-0-0-3h4-------------------------|
| . . . .     . . . .                          
|                                          Guitar 2 (Right Channel)
|----------------------------------------------Ah-|
|----------------------------------------------6--|
|-------------------------------------77775555----|
|-0-0-0-0-3h4-0-0-0-0-3h4-------------------------|
  . . . .     . . . .                      


A1 (both guitars)                   
|----------------------------------------------|
|-----------------------------7777-----AH------|
|-------------------------5555----8888-7---5-3-|
|-0-0-0-0-3h4-0-0-0-0-3h4------------------3-1-|
  . . . .     . . . .                      pmh

A2
|-------------------------------------------------|
|-------------------------555544447-------8-------|
|------------------------------------7777-6-------|
|-0-0-0-0-3h4-0-0-0-0-3h4-------------------------|
  . . . .     . . . .                    pmh 

Repeat A1

A3
|----------------------------------------------Ah-|
|-----------------------------7777-------------6--|
|-------------------------5555----888877775555----|
|-0-0-0-0-3h4-0-0-0-0-3h4-------------------------|

Repeat A1

Fill 1
|----------------------------------------------|
|-------------------------555544447------------|
|------------------------------------7777-6----|
|-0-0-0-0-3h4-0-0-0-0-3h4------------------763-|
  . . . .     . . . .                    

Repeat A1,A3,A1 

Fill 2
|---------------------------------------------------|
|-------------------------555544447-----------------|
|------------------------------------7777-6----6--3-|
|-0-0-0-0-3h4-0-0-0-0-3h4------------------76--4--1-|
  . . . .     . . . .                         pmh..



B    [1,3,5,7]                [2,6]                           
|---------------|-------------------------------|
|---------------|-------------------------------|
|-------------3-|-------------5-5-5-6-6-6-3-3-3-|
|-0-0-0-0-0-0-1-|-0-0-0-0-0-0-3-3-3-4-4-4-1-1-1-|
  . . . . . .pmh  . . . . . . . . . . . . . . .   

           [4]                              [8]
|----------------------------|-------------------------------|
|----------------------------|-------------------------------|
|-5-5-5-6-6-6-10-10-10-9-9^\-|-------------------------------|
|-3-3-3-4-4-4-8--8--8--7-7^\-|-0-0-0-0-0-0-3h6p3-2h5p2-1h4p1-|
  . . . . . . .  .  .          . . . . . .

Repeat B

C      [1,3,5]              [2]           [4]                [6]
|--------------------|---------------|-----------|------------------------|
|--------------------|---------------|-----------|------------------------|
|-2----------3-2-----|-5-5-6-6-3-3-2-|-5-6-10-Ah-|------------------------|
|-0-00000000-1-0-0000|-3-3-4-4-1-1-0-|-3-4-8--7^-|-00-0-00-0-00-0-00-0-00-|
    ........     ....  . .             . .         .. . .. . .. . .. . ..

Repeat C (without muting) with C'

C'          [6]            Pause
|--------------------------|---|
|--------------------------|---|
|--------------------------|---|
|-00-0-00-0-00-0-00-0-00-0-|---|
  .. . .. . .. . .. . .. .

Repeat C (without muting) with C''

C''       [6]          Pause
|----------------------|---|
|----------------------|---|
|-2--------------------|---|
|-0-00-0-00-0-00-0-0-0-|---|
    .. . .. . .. . . . 


D          [1,3,5,7]                    [2,6]              [4]
|--------------------------------|-----------------|----------------------|
|--------------------------------|-666-------------|-666---------Ah-------|
|-2------------------------------|-----888-2-3-6-3-|-----888-----2^-------|
|-0--0-0-0-0-0-0-0-0-0-0-0-0-0-0-|---------0-1-4-1-|---------1-3----------|
  .  . . . . . . . . . . . . . .   ... ... . .       ... ... . . 

              [8]
|--------------------------------|
|-66-6-7-------------------------|
|--------77-7-8-----------Ah-5-6-|
|---------------88-8-9-44-5--3-4-|
  ...    ..     ..     ..    . .

Fill 3                                      Guitar 1 (Left Channel)
|--------------------------------------------------|
|--------------------------------------------------|
|-2------------------------------------------------|
|-0--0-0-0-0-0-0-0-0-0-0-00-0-00-0-0-0-0-0-0-0-0-0-|
  .  . . . . . . . . . . .. . .. . . . . . . . . . 
 
(both guitars)
|--------------------------|
|-------5\2----------------|
|---6---3\4---5/6-----4----|
|-0-4-0-----0-3/4-0-34-431-|
  .   .     .     . ......

|--------------------------------------------------------|
|--------------------------------------------------------|
|-2------------------------------------------------------|
|-0--0-0-0-0-0-0-0-0-0-0-0-0-0-0-0-0-0-0-0-0-0-0-0-0-0-0-|
  .  . . . . . . . . . . . . . . . . . . . . . . . . . .

|------------------------|
|-------5\2---------3-/4-|
|---6---3\4---5/6---1-/2-|
|-0-4-0-----0-3/4-0------|
  .   .     .     .        

          
E                      [1,3,5,7]
|--------------------------------------------------------|
|--------------------------------------------------------|
|-2------------------------------------------------------|
|-0--0-0-0-0-0-0-0-0-0-0-0-0-0-0-0-0-0-0-0-0-0-0-0-0-0-0-|
  .  . . . . . . . . . . . . . . . . . . . . . . . . . .

         [2,6]                         [4,8]
|--------------------------|------------------------|
|-------5\4----------------|-------5\2---------3-/4-|
|---6---3\2---5/6-----3----|---6---3\4---5/6---1-/2-|
|-0-4-0-----0-3/4-0-34-431-|-0-4-0-----0-3/4-0------|
  .   .     .     .          .   .     .     .


		                   Guitar 1 (Left Channel)
|-------------------------------------|
|-------------------------------------|
|-2---/8-7-7--------2---/8-7-5--5-----|
|-0-----------0-1-3-0-------------4-3-|
|                              Guitar 2 (Right Channel)
|-------------------------------------|
|-------------------------------------|
|-2-----------------2-----------5-----|
|-0-----------0-1-3-0-------------4-3-|

		                   Guitar 1 (Left Channel)
|-------------------------------------|
|-------------------------------------|
|-2---/8-7-7--------2---/8-7-5--3-----|
|-0-----------0-1-3-0-------------4-1-|
|                              Guitar 2 (Right Channel)
|-------------------------------------|
|-----------------------/7-6-4--------|
|-2-----------------2-----------5-----|
|-0-----------0-1-3-0-------------4-3-|


F (under solo)                                 Guitar 1 (Left Channel)
|-----------------------------------------------------|
|-----------------------------------------------------|
|-2-------/8-7-7------------2-------/8-7-5------5-----|
|-0-00000--------0000-0-1-3-0-00000--------0000---4-3-|
|   .....        ....         .....        ....
|                                              Guitar 2 (Right Channel)
|-----------------------------------------------------|
|---------/7-6-6--------------------/7-6-4------------|
|-2-------------------------2-------------------5-----|
|-0-00000--------0000-0-1-3-0-00000--------0000---4-3-|
    .....        ....         .....        ....


Repeat F, E, F x 2

		                                  Guitar 1 (Left Channel)
|----------------------------------------------------|
|----------------------------------------------------|
|-2----8-7-7--------2----8-7-5--5--------2------(2)--|
|-0-----------0-1-3-0--------------4--3--0------(0)--|
|                                             Guitar 2 (Right Channel)
|----------------------------------------------------|
|----------------------------------------------------|
|-2-----------------2-----------5--------2------(2)--|
|-0-----------0-1-3-0--------------4--3--0------(0)--|


Bridge                                                            Guitars
|---------------------------------|-------------------------------Ah-|
|---------------------------------|--------------------------7777-6--|
|--------3-2----------------------|--------3-2-------55558888--------|
|-0-0000-1-0----------------------|-0-0000-1-0-----------------------|
| . .... . .                        . .... . .       ............
|                                                                  Bass
|---------------------------------|----------------------------------|
|---------------------------------|--------------------------7----6--|
|--------------3-2---2-1---1-0----|--------------4-3-5---8-----------|
|-0-0000-1-0-5-----4-----3-----1--|-0-0000-1-0-5---------------------|

                                                                  Guitars
|---------------------------------|----------------------------------|
|---------------------------------|----------------------------------|
|--------3-2----------------------|--------3-2-2-3-2-3-2-3-----------|
|-0-0000-1-0----------------------|-0-0000-1-0-0-1-0-1-0-1-\\\\\\\\\-|
| . .... . .                        . .... . . . . . . . .  
|                                                                  Bass
|---------------------------------|----------------------------------|
|---------------------------------|----------------------------------|
|--------------3-2---2-1---1-0----|----------------------------------|
|-0-0000-1-0-5-----4-----3-----1--|-0-0000-1-0-0-1-0-1-0-1-\\\\\\\\\-|


G               [1,3]                           [2]
|---------------------------------|-------------------------------Ah-|
|---------------------------------|--------------------------7777-6--|
|--------3-2---3-2---2-1---1-0-Ah-|--------3-2---3-2-55558888--------|
|-0-0000-1-0-5-----4-----3-----1--|-0-0000-1-0-5---------------------|
| . .... . . .     .     .          . .... . . .     ............

                 [4]
|----------------------------------|
|----------------------77776666-Ah-|
|--------3-2---3-2-5555---------8--|
|-0-0000-1-0-5---------------------|
| . .... . . .     ............
Repeat G with G'

G'                   [4]
|-------------------------------------------------------------------|
|---------------------------------------------7h10-7h10-7h10-7h10---|
|--------3-2---3-2-888888-7h10-7h10-7h10-7h10---------------------5-|
|-0-0000-1-0-5----------------------------------------------------3-|
| . .... . . .     ......                                         .


H
|-------------------------------------------------------------|
|-------------------------------------------------------------|
|-2------3------6------5------2------3------------------------|
|-0-0000-1-1111-4-4444-3-3333-0-0000-1-1111-0-11-0-0-11-0-0-1-|
                                            . .. . . .. . . .

|----------------------------------------------------|
|-----------------------------5------4------------Ah-|
|-2------3------6------5------3-3333-2-2222-----3-2^-|
|-0-0000-1-1111-4-4444-3-3333---------------0-4------|
                                            . . . 


D'         [1,3,5,7]                    [2,6]             [4]
|--------------------------------|-----------------|----------------|
|--------------------------------|-666-------------|-666---------Ah-|
|-2------------------------------|-----888-2-3-6-3-|-----888-----2^-|
|-0--0-0-0-0-0-0-0-0-0-0-0-0-0-0-|---------0-1-4-1-|---------1-3----|
  .  . . . . . . . . . . . . . .   ... ... . .       ... ...     

 
                                       Guitar 1 (Left Channel)
|----------------------------------------------|
|-----------------------------7777-----Ah------|
|-------------------------5555----8888-7---5-3-|
|-0-0-0-0-3h4-0-0-0-0-3h4------------------3-1-|
| . . . .     . . . .                      pmh
|                                       Guitar 2 (Right Channel)
|----------------------------------------------|
|----------------------------------------------|
|------------------------------------------5-3-|
|-0-0-0-0-3h4-0-0-0-0-3h4------------------3-1-|
  . . . .     . . . .                      pmh


Repeat A3, A1, Fill 1, A1, A3, A1, A2, Fill 2


Now THAT is what I call a song!

---------------------
Lal [lalithv@uk2.net]
Suggest correction
Give kudos to tab author, rate the tab!
1 2 3 4 5
comments
print report bad tab
1 comment total.
0 reply
themuffinman666 10 wrote on April 10 2008, 10:55 pm

wheres the solo?!?!?!?!?!?!?!?!?!? :(

guest
You may want to rate the tab now too:
select rating
Wanna post a correction for this tab? Suggest correction