Oops, an error
Loading. Please wait.

Inhale The Ghost Tab

534 views 1 this week
no commentswrite comment
1 2 3 4 5
please rate
add to favorites
launch autoscroll
font size
0
reset
how to read this tab
guitar tuner
Autoscroll
slow
fast
+/-
esc
set tempo
stop
Help us to improve Ultimate-Guitar.com Take our survey!
×
This tab is a monster! It's taken me about a year, on and off, to finish it and I think it's finally done. Riffs I'm not entirely convinced about are:

end of A1+A2, end of E and the hammer on bit at the start of the G riffs.

But I can't be arsed anymore. Comments, complains and corrections to the above address! :P



INHALE THE GHOST - Iniquity – Five Across the Eyes
Version 1.0 – October 2001
Transcribed by Lalith Vipulananthan (singularitymetaltab@hotmail.com)

Tuning (Low - High): B E A D G B
 

A1                                                 
|-----------------7-6------------------------------|
|-7-----6-----7-8-----8----------------------------|
|-----------------------0------------------5--5--5-|
|---000---000-------------3-5p3-6-5p3-0—6--3—-3--3-|
    ...   ...                              .  .  .

A2                                                 
|-----------------7-6------------------------------|
|-7-----6-----7-8-----8--------------------Ah------|
|-----------------------0------------------8~~~~---|
|---000---000-------------3-5p3-6-5p3-0—6—---------|
    ...   ...                                     


Repeat (A1+A2) x 2, A1


Fill 1
|---------|
|---------|
|-3—-3—-3-|
|-1—-1—-1-|
  .  .  .

B              					              Play 4 times 
|-------------------------------------------------------------<4>-------|
|-------------------------------------------------------<5>------<4>----|
|----------------------------------------------------<5>---<5>------<4>-|
|-2-----------------------------/5--------3-4-3-------------------------|
|-2----5\4/5\4/5-2—-5\4/5-8-3-2-----4-----------6-5~--------------------|
|-0----3\2/3\2/3-0—-3\2/3-6-1-0--------6--------------------------------|
                              .            

Repeat (A1+A2) x 2

Fill 2                         Left Channel
|------------------------------------------|
|--------------------------5--5------------|
|--------------------------3--3------3-----|
|-0—-----------------0-0-0-------0-0-1--0--|
| .                  . . .                      
|					 Right Channel
|------------------------------------------|
|--------------------------5--5------------|
|--------7-6-----2-3-------3--3------3-----|
|-0—-0-0-----0-0-----0-0-0-------0-0-1--0--|
  .  . . . . . . . . . . .       . .    .                   


C1 (both guitars)
|---------------------------------------------------------------|
|------------------------------------------------------------Ah-|
|--------7-6-----2-3-----------------------------------------3--|
|-0—-0-0-----0-0-----0-0-0-0-0-0-1-1-1-1-1-1-1-1-4-4-4-4-4-4----|
  .  . . . . . . . . . . . . . . . . . . . . . . . . . . . .                 

C2
|--------------------------------9-9-9-9-9-9-9-9-10-10-10-10-10-10-10-10-|
|------------------------------------------------------------------------|
|--------7p6-----2/3-------------7-7-7-7-7-7-7-7-8—-8—-8--8--8--8—-8--8--|
|-0—-0-0-----0-0-----0-0-0-0-0-0-----------------------------------------|
  .  . . . . . . . . . . . . . .       


Repeat (C1+C2) x 4


D   [1,3,5,7]           [2,6]                [4]                [8]
|-----------12\--|-9-10-10-13-13-14-|-9-9-10-10--7--6h7p6-|-------------|
|---------8------|------------------|---------------------|---6---5-----|
|-------7--------|-7-8--8--11-11-12-|-7-7-8—-8---5--------|-7---7---8—--|
|-0--/8----------|------------------|---------------------|-------------|
                                                 .

E
|---------------------------/9-------------------------|
|------------------------------10-6~~------------------|
|-2----2-3--------6-3--2------------------7-3--8---/6--|
|-0--------4----0-4-1--0--------------7-8---1--6-0-/4--|
|               .                                .
|
|------------------------------------------------------|
|------------------------------------------------------|
|-2-----------------3--2------------------7-3--8---/6--|
|-0-------------0-4-1—-0--------------7-8---1--6-0-/4--|
                .                                .
									  Left Channel
|----------------------------------------7-----------------------Ah-|
|------------------------------------7-8---8-7-8-7h8p7----7---------|
|-2----2-3-----4------2----/8-7--7-8-------------------10---10-7-8--|
|-0--------1-----3----0---------------------------------------------|
|                                . . . .  
|									  Right Channel
|-------------------------------------------------------------------|
|-------------------------------------------------------------------|
|-2----2-3-----4------2---------dive bomb harmonic------------------|
|-0--------1-----3----0---------------------------------------------|
 pml                 pml


Repeat D x 2


     Guitar 1 (Left Channel)
|---------------------------------|
|---------------------------------|
|---------------------------------|
|-0-3-0-0-111-111-0-3-0-0-111-111-|
| . . . . ... ... . . . . ... ...
|          Guitar 2 (Right Channel)
|---------------------------------|
|---------------------------------|
|---------3---3---3---3---3---3---|
|---------1---1---1---1---1---1---|
          .   .   .   .   .   .







			  Guitar 1 (Left Channel)
|------------------------------------------|
|------------------------------------------|
|---------------------------------77777777-|
|-0-3-0-0-111-111-0000444444444444---------|
| . . . . ... ...
|                   Guitar 2 (Right Channel)
|------------------------------------------|
|------------------------------------------|
|---------3---3-------------------77777777-|
|---------1---1---0000444444444444---------|
          .   .


F1    [1,2,3]                [4]    
|-----------------|--------------------------|
|-----------------|--------------------------|
|-----------------|-----------------77777777-|
|-0-3-2-0-111-111-|-0000444444444444---------|
  . . . . ... ...


Repeat F1 x 2


F2      [1]             [2,3]                   [4]    
|-----------------|-----------------|--------------------------|
|-----------------|-----------------|--------------------------|
|-----------------|-----------------|-----------------77777777-|
|-0-3-2-0-111-1—1-|-0-3-2-0-1-1-1-1-|-0000444444444444---------|
  . . . . ... . .   . . . . . . . .  


Repeat F2 x 3
Repeat (A1+A2) x 2, B x 2
Repeat B x 2 with the following harmony


B’										   Play twice
|-------------------------------------------------------------<4>-------|
|-------------------------------------------------------<5>------<4>----|
|-----------------------------------------3-4-3------<5>---<5>------<4>-|
|-2-----------------------------/5--------------6-5~--------------------|
|-2----5\4/5\4/5-2—-5\4/5-8-3-2-----4-----------------------------------|
|-0----3\2/3\2/3-0—-3\2/3-6-1-0--------6--------------------------------|
                              .            


Fill 3
|------------------------------------------|
|----------------3---6---7---2-------------|
|----------------3---4---5---2-------------|
|----------------1---4---5---0—000000-0000-|
|                              ...... ....
|						
|------------------------------------------|
|----------------3---6---7---2-------------|
|---5-2--4---3---3---4---5---2-------------|
|-0--------------1---4---5---0-000000-0000-|
                               ...... ....



G1    [1,3,5]             [2]              [4]                 [6]
|------------------|-----------------|----------------|-------------------|
|------------------|-Ah--------------|----------------|-------------------|
|-------5--4-------|-8-----3---6---3-|-2--------------|-555588557-7tr8----|
|-6h7p6-5--4--0000-|---7-0-1-0-4-0-1-|-0-00000-000000-|-------------------|
              ....       .   .   .       ..... ......           .

G2   [1,3,5,7]             [2]              [4]                 [6]
|------------------|----------------|-----------------|----------------------|
|------------------|----------------|-Ah--------------|-77771010779-9tr10----|
|-------5--4-------|-2--------------|-8-----3---6---3-|----------------------|
|-6h7p6-5--4--0000-|-0-00000-000000-|---7-0-1-0-4-0-1-|----------------------|
              ....     ..... ......       .   .   .               .


G3								Guitar 1 (Left Channel)
|------/9--8------------------------|----------------------------------|
|-----------------------------------|------------------Ah--------------|
|-------------------2---------------|-------5--4-------8-----3---5---3-|
|-6h7p6--------0000-0-000000-000000-|-0h1p0-5--4--0000---7-0-1-0-3-0-1-|
|              ....   ...... ......               ....     .   .   .
|								Guitar 2 (Right Channel)
|-----------------------------------|------/6--5-----------------------|
|-----------------------------------|------------------Ah--------------|
|-------5--4--------2---------------|------------------8-----3---5---3-|
|-6h7p6-5--4---0000-0-000000-000000-|-0h1p0-------0000---7-0-1-0-3-0-1-|
               ....   ...... ......               ....     .   .   .

								     Guitar 1 (Left Channel)
|------/9--8------------------------|---------------------------------------|
|-----------------------------------|---------------------------------------|
|-------------------2---------------|-------5--4-------77771010779-9tr10----|
|-6h7p6--------0000-0-000000-000000-|-0h1p0-5--4--0000----------------------|
|              ....   ...... ......               ....           .
|								     Guitar 2 (Right Channel)
|------/6--5------------------------|------/6--5----------------------------|
|-----------------------------------|---------------------------------------|
|-------------------2---------------|------------------77771010779-9tr10----|
|-6h7p6--------0000-0-000000-000000-|-0h1p0-------0000----------------------|
               ....   ...... ......               ....           .


Outro (both guitars)
|-----------------------------------|--------------------------|
|-----------------------------------|------------------Ah------|
|-------5--4--------2---------------|-------5--4-------8-----3-|
|-6h7p6-5--4---0000-0-000000-000000-|-0h1p0-5--4--0000---7-0-1-|
               ....   ...... ......               ....     . . 

Seque straight into “Surgical Orb”

----------------------------------------------------------------
The End!
Suggest correction
What's this?
You can suggest a correction to this tab. Community and Mods will review your correction and vote to approve or reject it.
comments
We did not receive enough feedback on this tab! Please rate:
print report bad tab
1 2 3 4 5
guest
You may want to rate the tab now too:
select rating
Please do not post tabs as comments. Select "correction" instead!