Oops, an error
Loading. Please wait.

The Hidden Lore Tab

222 views 1 this week
no commentswrite comment
1 2 3 4 5
please rate
add to favorites
launch autoscroll
font size
0
reset
how to read this tab
guitar tuner
Tab Pro tools
  • play this tab
  • loop segment
  • change instrument
  • show fretboard
  • metronome
×
Best way to learn
"The Hidden Lore"
Autoscroll
slow
fast
+/-
esc
set tempo
stop
THE HIDDEN LORE - Iniquity - The Hidden Lore
Version 1.0 - July 2001
Transcribed by Lalith Vipulananthan (lalithv@uk2.net)

Rhythm Guitar Transcribed on Bass
Tuning (Low - High): B E A D 

A1
|-------------------------|---------------------------Ah-|
|-------------------------|-----------------------77776~-|
|---------------3-2--33-2-|---------------77778888-------|
|-0-1-0-3-0-1-0-1-0--11-0-|-0-1-0-3-0-1-0----------------|
| . . . . . . . . .  .. .   . . . . . . .
|
|-------------------------|---------------------------Ah-|
|-------------------------|-----------------------77776--|
|---------------3-2--33-2-|---------------77778888-------|
|---------------1-0--11-0-|-0-1-0-3-0-1-0----------------|
                . .  .. .   . . . . . . .  

A2 (both guitars)   
|-------------------------|-----------------------------------------|
|-------------------------|-----------------------------------------|
|---------------3-2--33-2-|---------------7h10p7-6h9p6-7h10p7-3h6p3-|
|-0-1-0-3-0-1-0-1-0--11-0-|-0-1-0-3-0-1-0---------------------------|
  . . . . . . . . .  .. .   . . . . . . . 

Repeat (A1+A2) (both guitars)

B   [1,3]         [2]               [4]
|-----------|--------------|--------------------|
|-----------|--------------|--------------------|
|--------2--|-5/6--6\5--Ah-|-10h11p10-8h9p8--5--|
|-0-0-0--0--|-3/4--4\3--1~-|--------------------|
  . . .

Repeat B, (A1+A2) x 2, B (under solo 1)
Repeat B

C1
|--------------------------------------------------|
|-------10tr13--9tr12----------------9tr12--8tr11--|
|--------------------------------------------------|
|-0-0-0----------------0-1-0-3-0-0-0---------------|
  . . .                . . . . . . .             

C2
|---------------------------------------------------------------|
|---------------8tr11--7tr10-----------6tr9--3tr6--2tr5---------|
|---------------------------------------------------------------|
|-0-1-0-3-0-0-0----------------0--1--3------------------0-1-0-3-|
| .  .  . . . .                .  .  .                  . . . .
|
|---------------------------------------------------------------|
|---------------8tr11--7tr10-----------8tr11-7tr10-6tr9---------|
|---------------------------------------------------------------|
|-0-1-0-3-0-0-0----------------0--1--3------------------0-1-0-3-|
  .  .  . . . .                .  .  .                  . . . .

Repeat C1, C2


D
    [1,3,5,7]       [2,6]              [4]             [8]
|-------------|---------------|-----------------|---------------|
|-------------|---------------|-----------------|---------------|
|--------2----|--------5/6-5--|-----------------|-------5/6--5--|
|-0-0-0--0----|-0-0-0--3/4-3--|-0-0-0-3-4-3-1-3-|-0-0-0-3/4--3--|
  . . .         . . .           . . . . . . . .   . . .

Repeat D (under solo 2)

E (under solo 2)
|-----------------------------------------------------------------------|
|-----------------------------------------------------------------------|
|-5-------------5/6-5----3----2----3--------5/6\5--------------5/6-5----|
|-3-------0-0-0-3/4-3----1----0----1--0-0-0-3/4\3--------0-0-0-3/4-3----|
          . . .                       . . .              . . .

Fill 1
|----------------Ah~--|
|----------------2----|
|-3----2--------------|
|-1----0----3---------|
  pmh...   

Bass           
|-------------------------------------|
|-------------------------------------|
|---------------------------------7---|
|-444-333-444-3-6-3-444-333-444-3---3-|


*Bass 
|-------------------------------------|
|-------------------------------------|
|---------------------------------7---|
|-444-333-444-3-6-3-444-333-444-3---3-|
*Guitars
|-------------------------------------|
|-------------------------------Ah----|
|-----8--6--8-6-5-6-6---3---5---7~~---|
|-----6--4--6-4-3-4-4---1---3---------|
            . . . . pmh......

*not in strict time (listen to the song!)

F   [1,3,5]     [2,6]    [4]            [7]
|-------------|-------|-------|-4-4-4-5-5-5-8-8-8----|
|-------------|-------|---Ah~-|-------------------Ah-|
|-------------|-------|---7---|-2-2-2-3-3-3-6-6-6-6--|
|-444-333-444-|-3-6-3-|-3-----|----------------------|
  ... ... ...   . . .   .

Repeat F x 2 

G1             [1,3]                      [2]        [4]
|-------------------------------------|----------|-----Ah--|
|---2-------3---2-------1---2-------3-|---2------|-44445~~-|
|---2-------3---2-------1---2-------3-|---2------|---------|
|-0---0-000---0---0-000---0---0-000---|-0---1111-|---------|
  .   . ...   .   . ...   .   . ...     .   ....   




G2             [1,3]                      [2]        [4]
|-------------------------------------|----------|-----Ah--|
|-2-------3---2-------1---2-------3---|-2--------|-44445~--|
|-2-------3---2-------1---2-------3---|-2--------|---------|
|---000-0---0---000-0---0---000-0---0-|---0-1111-|---------|
    ... .   .   ... .   .   ... .   .     . ....

Repeat G1 

              [4]          Left Guitar
|-------------------------------|
|-2tr3--3tr4--5tr6--4-----------|
|-------------------2-5-3-2--3--|
|---------------------3-1-0--1--|
|                     . . .
|                               Right Guitar
|-------------------------------|
|-2tr3--3tr4--5tr6--4-----------|
|-------------------2-5-3-2-----|
|---------------------3-1-0-----|
                      . . .


H       [1,3,5,7]           [2,6]      [4]       [8]
|------------------------|---------|----------|-------|
|------------------------|---------|----------|-------|
|---------5/6-5----------|-222-0-3-|-33332222-|-------|
|-0-1-0-3-3/4-3--0-000-0-|---------|----------|-000-0-|
  . . . .        . ... .   ... . .              ... .


Repeat C1

Fill 2
|--------------------------------------------|
|--------------------------------------------|
|----------------------2---2---2---2---2---2-|
|-0-1-0-3-0-0-0--0000--0---0---0---0---0---0-|
  . . . . . . .  ....  pmh..................


Repeat D x 2 (2nd time under solo 3)


Repeat Fill 1, F x 4

I1 (Left Channel only)
|-------------------------------------------------------------|
|-66666666-6tr9-----55555555-5tr8-----99999999-9tr12-8tr11----|
|-------------------------------------------------------------|
|-------------------------------------------------------------|
  ........          ........          ........

Repeat I1 (both guitars)

I2 
|-------------------------------------------------------------|
|-66666666-5tr8-----44444444-4tr7-----88888888-8tr11-7tr10----|
|-------------------------------------------------------------|
|-------------------------------------------------------------|
  ........          ........          ........

Repeat (I1+I2), I1

I3
|-----------------------------------------------------------|
|-----------------------------------------------------------|
|-----------------------------------------------------------|
|-44444444-3tr6-----22222222-2tr5-----66666666-6tr9-5tr8----|
  ........          ........          ........

I4
|--------------------------------------------------------------------|
|--------------------------------------------------------------------|
|--------------------------------------------------------------------|
|-44444444-4tr7-----33333333-3tr6-----77777777-7tr10-6tr9------------|
  ........          ........          ........

I5                      
|--------------------------------|
|--------------------------------|
|--------------------------------|
|-77777777-7tr10-6tr9------------|
  ........          

Fill 6
|----------------|
|----------------|
|----------------|
|-77777777-7tr10-|
  ........          

Repeat I3, I4, I5

Outro            Repeat until fade
|--------------------------------|
|--------------------------------|
|--------------------------------|
|-11111111-1tr4-0tr3-------------|
  ........     

---------------
The End!
comments
We did not receive enough feedback on this tab! Please rate:
print report bad tab
1 2 3 4 5
I want to post or [tab]
guest
You may want to rate the tab now too:
select rating
Please do not post tabs as comments. Select "correction" instead!