Oops, an error
Loading. Please wait.

Faithless Tab

version 1
version 1

Whole song

Interactive

863 views 3 this week
3 commentsread comments
1 2 3 4 5
x 3
add to favorites
launch autoscroll
font size
0
reset
how to read this tab
guitar tuner
Autoscroll
slow
fast
+/-
esc
set tempo
stop
Help us to improve Ultimate-Guitar.com Take our survey!
×
Author
Injected, “Faithless”
Album: Burn it Black
Tabbed By: Joe
Tuning: Standard

Most of this is 100% correct, except for some parts of the end and bridge that I couldn't 
figure out.  It's an awesome song-remember to turn up that overdrive!  Questions, comments,
insults, etc., send to MagLotus@aol.com… Cut me some slack though, this is my 1st tab!

/=slide, h=hammer on, p=pull off, b=bend strings down, ~=hold note

INTRO (Guitar 1) Repeat 8x
E-----------------------------------------------------------
B-----------------------------------------------------------
G-----------------------------------------------------------
D-2-2-2-2-4-4-4-4-4-4-4/2-----------------------------------
A-2-2-2-2-4-4-4-4-4-4-4/2-----------------------------------
E-0-0-0-0-2-2-2-2-2-2-2/0-----------------------------------

INTRO (Guitar 2) (0:08)
E-----------------------------------------------------------
B-----------------------------------------------------------
G-------------------------12-------------12-12-12-----------
D-12-12-12-12-12-12-12-12----12-15-10-12----------12--------
A-----------------------------------------------------------
E-----------------------------------------------------------

E-----------------------------------------------------------
B-----------------------------------------------------------
G----------12-----------------------------------------------
D-15h17/12----12-15-10-12-10-10-10-10-10-10-10-10b----------
A-----------------------------------------------------------
E-----------------------------------------------------------

VERSES (Guitar 1)
Repeat INTRO, with palm mute.  (Note-Guitar 2 has some background parts; I can’t make 
it out though.)

RIGHT BEFORE CHORUS (0:40) (Guitar 1)
E-----------------------------------------------------------
B-----------------------------------------------------------
G-----------------------------------------------------------
D-2-2-2-2-2-2-----------------------------------------------
A-2-2-2-2-2-2-----------------------------------------------
E-0-0-0-0-0-0-----------------------------------------------

CHORUS (Slam on that distortion!) (Both Guitars)(4x)
E-----------------------------------------------------------
B-----------------------------------------------------------
G-----------------------------------------------------------
D-4-2-4-2-6-4-6-4-------------------------------------------
A-4-2-4-2-6-4-6-4-------------------------------------------
E-2-0-2-0-4-2-4-2-------------------------------------------

AFTER CHORUS (1:03)(Guitar 2)
E-----------------------------------------------------------
B-------15~-------------------------------------------------
G-10-15-----------------------------------------------------
D-----------------------------------------------------------
A-----------------------------------------------------------
E-----------------------------------------------------------

REPEAT VERSE ON GUITAR 1

(1:17)(Guitar 2)
REPEAT INTRO

CHORUS (BOTH GUITARS)

BRIDGE (REPEAT 3X)(1:48, get ready to rumble!) (Parts in parentheses play 2nd time 
and 3rd time only.)
Guitar 1
E-----------------------------------------------------------
B-----------------------------------------------------------
G-----------------------------------------------------------
D-2-2-2-2-(4-4-4-4-4-4)-2-2-2-2-(4-4-4-4-4-4)---------------
A-2-2-2-2-(4-4-4-4-4-4)-2-2-2-2-(4-4-4-4-4-4)---------------
E-0-0-0-0—(2-2-2-2-2-2)-0-0-0-0-(2-2-2-2-2-2)---------------

Guitar 2
E-----------------------------------------------------------
B-----------------------------------------------------------
G-----------------------------------------------------------
D---------12--------------------12~-13/12-13/12-------------
A------------10/8-------------------------------------------
E-----------------------------------------------------------
(There’s a second part, but it’s a bit complicated, so I can’t get it down, maybe 
I’ll submit a revised version later.)

RIGHT BEFORE FINAL CHORUS:
E-----------------------------------------------------------
B-----------------------------------------------------------
G-----------------------------------------------------------
D-2-2-2-2-2-2-----------------------------------------------
A-2-2-2-2-2-2-----------------------------------------------
E-0-0-0-0-0-0-----------------------------------------------

CHORUS (2X, Guitar 1)

CHORUS (2:46, Guitar 2) (It’s a variation of the intro, with a few nice twists, 
there’s one riff that I can’t get near the beginning.)
E-----------------------------------------------------------
B-------12-------12-------12-------12-----------------------
G-11-------11-------11-------11-------10h12-----------------
D----12-------12-------12-------12----------12h10h12h13p12--
A-----------------------------------------------------------
E-----------------------------------------------------------

E-----------------------------------------------------------
B-----------------------------------------------------------
G-12-------------12~-14p12-10~------------------------------
D----12-15-10-12--------------------------------------------
A-----------------------------------------------------------
E-----------------------------------------------------------
                                        Final Part (3:07)
E----------------------------|------------------------------
B----------------------------|-------15~--------------------
G-12-------------------------|-10-15------------------------
D----12-15-10-12-13/12-13/12-|------------------------------
A----------------------------|------------------------------
E----------------------------|------------------------------
Suggest correction
Give kudos to tab author, rate the tab!
1 2 3 4 5
comments
print report bad tab
3 comments total.
0 reply
grunge rocker 60 Jun 13, 2002 12:00 AM

it might just be the fact that i've only been playing a couple months and am not that good yet, but the chorus sounds a little off

0 reply
TheSauce 0 Jun 27, 2002 12:00 AM

The Song is played in Drop D tuning.

0 reply
Tyler H. 40 Jun 25, 2003 12:00 AM

actually this version doesnt sound so bad... i dont think it really matters if it's drop d or not. i think its tuned down half a step though but maybe i've been working in a factory too long.. great song, pretty good tab. theres still some solos to tab though and some background for the verses

i think guitar two plays this during first verse

------------------------------
------------------------------
------------------------------
-12/13/12------12\10----10-12-
------------------------------
------------------------------

that should get somebody started maybe... i hope these guys arent a one hit wonder but im afraid they might just be. ah well thats life.

-Tyler

'if assholes could fly this place would be an airport'

guest
You may want to rate the tab now too:
select rating
Wanna post a correction for this tab? Suggest correction