Oops, an error
Loading. Please wait.

This Ones For Kermit Washington Bass Tab

180 views 1 this week
no commentswrite comment
1 2 3 4 5
1 last vote to show rating
add to favorites
launch autoscroll
font size
0
reset
guitar tuner
Autoscroll
slow
fast
+/-
esc
set tempo
stop
Help us to improve Ultimate-Guitar.com Take our survey!
×
Author
Tabbed by pavelardo

Intro - no bass

Verse     x5         x1      x2
G|---------|----------|------------|
D|---------|----------|------------|
A|------4~-|-2~--/7~--|------------|
E|-0~------|----------|-2-4-5-5555-|

         x3         x1      x2
G|---------|----------|------------|
D|---------|----------|------------|
A|------4~-|-2~--/7~--|------------|
E|-0~------|----------|-2-4-5-5555-|

Chorus
G|------------------------------------------------------------------------------------|
D|------------------------------------------------------------------------------------|
A|---------------------------------------------------------------------------------7~-|
E|-00000000-444444444-00000000-5-4-2-2-00000000-44444444-00000000-5-4-2----5-3h4h3----|


Verse 2  x3         x1      x2
G|---------|-----------|------------|
D|---------|-----------|------------|
A|------4~-|-2~--/7~\--|------------|
E|-0~------|-----------|-2-4-5-5555-|

Chorus
G|------------------------------------------------------------------------------------|
D|------------------------------------------------------------------------------------|
A|---------------------------------------------------------------------------------7~-|
E|-00000000-444444444-00000000-5-4-2-2-00000000-44444444-00000000-5-4-2----5-3h4h3----|

Rest

Bridge                                                               x2
G|----------------------------------------------------------------------|
D|----------------------------------------------------------------------|
A|------------------4444444444444444------------------4444444444444444--|
E|-0000000000000000------------------0000000000000000-------------------|

G|------------|------------|------------|----------------|
D|------------|------------|------------|----------------|
A|------------|------------|------------|----------------|
E|-2-4-5-5555-|-2-4-5-5555-|-2-4-5-5555-|-2-4-5-55555555-|

Final Chorus
G|-----------------------------------------------------------------------------------------------------|
D|-----------------------------------------------------------------------------------------------------|
A|-----------------------------------------------------------------------------------------------7~----|
E|-00000000-444444444-00000000-5-4-2-2-00000000-44444444-00000000-5-4-2----5-4-2----5-4-2----5-4-----0~|
Suggest correction
Give kudos to tab author, rate the tab!
1 2 3 4 5
comments
print report bad tab
guest
You may want to rate the tab now too:
select rating
Wanna post a correction for this tab? Suggest correction