Oops, an error
Loading. Please wait.

We Are The Captains Of The Sea Bass Tab

134 views 1 this week
no commentswrite comment
1 2 3 4 5
3 more votes to show rating
add to favorites
launch autoscroll
font size
0
reset
guitar tuner
Autoscroll
slow
fast
+/-
esc
set tempo
stop
Help us to improve Ultimate-Guitar.com Take our survey!
×
Author
Tabbed by pavelardo

Verse                     x1                                                  x3
G|------|------------------|---------------------------------------------------|
D|------|------------------|---------------------------------------------------|
A|-rest-|-3333333333333333-|--------------------------------2-3333333333333333-|
E|------|------------------|-3333333333333333333333333333333-------------------|


Pre Chorus                                                              x3
G|---------------------------------|-------------------------------------|-------------|
D|---------------------------------|-------------------------------------|-------------|
A|---------------------------------|----------33333333-------------------|----------3~-|
E|-33333333333333333333333333333333|-00000000----------33333333-22222222-|-00000000----|

Chorus
G|----------------------------------------------------------------------------------------|
D|----------------------------------------------------------------------------------------|
A|----------------------------33333333-------------------33333333333333333333333333333333-|
E|-33333333-22222222-00000000----------33333333-22222222----------------------------------|

Verse 2                                             x3
G|---------------------------------------------------|
D|---------------------------------------------------|
A|--------------------------------2-3333333333333333-|
E|-3333333333333333333333333333333-------------------|

Pre Chorus                                                              x3
G|---------------------------------|-------------------------------------|-------------|
D|---------------------------------|-------------------------------------|-------------|
A|---------------------------------|----------33333333-------------------|----------3~-|
E|-33333333333333333333333333333333|-00000000----------33333333-22222222-|-00000000----|

Chorus
G|----------------------------------------------------------------------------------------|
D|----------------------------------------------------------------------------------------|
A|----------------------------33333333-------------------33333333333333333333333333333333-|
E|-33333333-22222222-00000000----------33333333-22222222----------------------------------|

Post Chorus                          x4
G|------------------------------------|
D|------------------------------------|
A|-22222222-33333333------------------|
E|-------------------3333333333333333-|

Verse 3                   x1                                                  x2
G|------|------------------|---------------------------------------------------|------------------|
D|------|------------------|---------------------------------------------------|------------------|
A|-rest-|-3333333333333333-|--------------------------------2-3333333333333333-|------------------|
E|------|------------------|-3333333333333333333333333333333-------------------|-3333333333333333-|

Rest
G|-------------------------------------------------------|
D|-------------------------------------------------------|
A|----------33333333----------------------------33333333-|
E|-00000000----------33333333-22222222-00000000----------|

Final Chorus                                                                             x2
G|----------------------------------------------------------------------------------------|
D|----------------------------------------------------------------------------------------|
A|----------------------------33333333-------------------33333333333333333333333333333333-|
E|-33333333-22222222-00000000----------33333333-22222222----------------------------------|


G|------------------------------------|
D|------------------------------------|
A|-33333333333333333333333333333333---|
E|----------------------------------3-|
Suggest correction
Give kudos to tab author, rate the tab!
1 2 3 4 5
comments
print report bad tab
guest
You may want to rate the tab now too:
select rating
Wanna post a correction for this tab? Suggest correction