Oops, an error
Loading. Please wait.

Cantos De Sirena Tab

26 views 1 this week
no commentswrite comment
1 2 3 4 5
3 more votes to show rating
add to favorites
launch autoscroll
font size
0
reset
how to read this tab
guitar tuner
×
Best way to learn
"Cantos De Sirena"
Autoscroll
slow
fast
+/-
esc
set tempo
stop
    Intro.-
1/-------------------------/------------------/
2/-------------------------/------------------/
3/--------------5-----4--5-/------------------/
4/-------5---------7-------/--7---------------/
5/-5--7------7-------------/--------------5---/
6/-------------------------/------------------/

1/------------------/----------------------/
2/----------------5-/--8---------------5---/
3/-------------5----/-----7-------5--------/
4/----------7-------/----------------------/
5/-3----------------/----------------------/
6/----5-------------/----------------------/

1/----------8-------------------------/
2/--9--10------9---10-----9---9---6---/
3/------------------------------------/
4/------------------------------------/
5/------------------------------------/
6/------------------------------------/

1/-----------------------------/----------------------/
2/-6----5----5-----------------/----------------------/
3/--------------7--5---4-----4-/--5--7--4-------------/
4/-----------------------------/------------5---7---7-/
5/-----------------------------/----------------------/
6/-----------------------------/----------------------/


    Punteo.-

1/----------------------/------------------------/
2/----------5--8--------/------------------------/
3/----5--7--------7--5--/--4--5----7---4---------/
4/-7--------------------/-----------------5----7-/
5/----------------------/------------------------/
6/----------------------/------------------------/

1/------------------/-------------/-------7--7-/
2/---5--6--8--5--8--/---6---------/------------/
3/------------------/-------7-----/------------/
4/------------------/-------------/------------/
5/------------------/-------------/------------/
6/------------------/-------------/------------/

1/--7--8------5---4---7--5--/-------5---8---/
2/--------------------------/---------------/
3/--------------------------/---------------/
4/--------------------------/---------------/
5/--------------------------/---------------/
6/--------------------------/---------------/

1/-4--4------5---------/--5--5--5--5---------/
2/--------6-----6--6---/---------------8---6-/
3/---------------------/---------------------/
4/---------------------/---------------------/
5/---------------------/---------------------/
6/---------------------/---------------------/


    jomecho@
Suggest correction
Give kudos to tab author, rate the tab!
1 2 3 4 5
comments
print report bad tab
guest
You may want to rate the tab now too:
select rating
Wanna post a correction for this tab? Suggest correction