Oops, an error
Loading. Please wait.

Piedra Libre Tab

4 views 1 this week
no commentswrite comment
1 2 3 4 5
3 more votes to show rating
add to favorites
launch autoscroll
font size
0
reset
how to read this tab
guitar tuner
×
Best way to learn
"Piedra Libre"
Autoscroll
slow
fast
+/-
esc
set tempo
stop
Intro:
G-D-Em-F
G-D-C
G-D-Em-F
G


e||-------------------------------------------------------------------||
B||-------------------------------------------------------------------||
G||-12---12-14---14-16-16-14-12-14-12-10-12--12-14-12-11-12-11-9------||
D||----12------12--------------------------12-------------------------||
A||-------------------------------------------------------------------||
E||-------------------------------------------------------------------||


e||-------------------------------------------------------------------||
B||------------------------------------------------------------12-----||
G||-12---12-14---14-16-16-14-12-14-12-10-12--12-14-12-11-12--14--14-12||
D||----12------12--------------------------12-------------------------||
A||-------------------------------------------------------------------||
E||-------------------------------------------------------------------||


G                        Bm
Detras de aquel gran arbol estamos escondidos
Em                         F         C
donde nadie nos encuentre, sin siquiera estar perdidos
Nunca habia sido feliz jugando a este juego
Tal vez será que todavía no te habia conocido

D ===== Am ==== C
y digo basta para mi
D ===== Am ===== Bb5-F
Y digo basta para todos

G ===== D ======= Em ======= F
Piedra libre, donde esta mi corazon?
========= G ======== D ======= C
que desde hoy se ha fugado de mi vida
Piedra libre, mi corazon entre tus brazos
que hoy por hoy, ya no juega a la escondida

 Sos la dueña de todo mi lado izquierdo
Tus ojos me estan llevando hacia otra dimension
Estan buscandome, sin darse por vencido
Y nunca se fijaron por las calles donde va mi amor

Piedra libre, donde esta mi corazon?
que desde hoy se ha fugado de mi vida
Piedra libre, mi corazon entre tus brazos
que hoy por hoy, ya no juega a la escondida


vamo inMAduros caraJooo

5/12 en marquee.

CUALQUIER DUDA O CONSULTA :

Suggest correction
Give kudos to tab author, rate the tab!
1 2 3 4 5
comments
print report bad tab
guest
You may want to rate the tab now too:
select rating
Wanna post a correction for this tab? Suggest correction