Oops, an error
Loading. Please wait.

7 Weeks bass

version 1
version 1

Whole song

Interactive

by InMe
593 views 1 this week
3 commentsread comments
1 2 3 4 5
2 more votes to show rating
add to favorites
×
Save as Personal and add changes to this tab that will be seen only by you. Learn more ›
×
You can save this tab as Personal to edit and correct it or add notes. All changes will be seen only by you. Learn more »
launch autoscroll
font size
0
reset
guitar tuner
edit
Autoscroll
slow
fast
+/-
esc
set tempo
stop
Intro/Verse

G|-----------------------------------------------------|
D|-----------------------------------------------------|
A|---------------------------8--------------------10-8-|
D|0-10-12-0-0-10-12-10-12-12----0-10-12-0-0-10-12------|

G|--------------------------------------------------|
D|--------------------------------------------------|
A|---------------------------8----------------------|
D|0-10-12-0-0-10-12-10-12-12----8-8-8-8-10-10-10-10-|


Chorus x2

G|----------------------------------------------------------------|
D|----------------------------------------------------------------|
A|----------------------------------------------------------------|
D|5-5-5-5-5-5-5-5-9-9-9-9-9-11h12p11-7-7-7-7-7-7-7-7-12--11--9--7-|

Thats pretty much it just listen to the song to pick out the exact timing and see when 
bass comes in as sometimes only the guitar plays

Sorted!

            
            
Suggest correction
Creating personal tab
Creating personal tab
You can edit any tab online and save it as your Personal.

You can edit, replace or remove any tab part or add personal notes – all changes will be seen only by you.

Personal tabs can be accessed anytime from any device, even offline.
Learn more »
Give kudos to tab author, rate the tab!
1 2 3 4 5
comments
print report bad tab
3 comments total.
0 reply
TristanGraham 31 Jul 03, 2007 02:12 PM

Hey just a few alterations that I think should be in place...

G|-----------------------------------------------------|
D|-----------------------------------------------------|
A|--------------------------8---------------------10-8-|
D|0-10-12-10-0-10-12-10-12-----0-10-12-0-10-12-10------|

G|------------------------------------------------|
D|------------------------------------------------|
A|-------------------------8----------------------|
D|0-10-12-10-0-10-12-10-12----8-8-8-8-10-10-10-10-|

Apart from that, most excellent my friend =]

0 reply
SarcasticDevil 83 Jul 21, 2007 07:13 AM

Yeah, that guy obviously dunno what he's talking about-or indeed listening to.
It's blatantly
D|0-10-12-0-0-10-12-10-12-----0-10-12-0-10-12-10------|

0 reply
LeeJam x 31 Mar 26, 2008 04:28 AM

i play...

G|----------------------------------------------------------------------------------|
D|-------------------3-----------------5--3--------------------3---------------------|
A|---3-5-----3-5-3-5-----3-5-----3-5-3--------3-5-----3-5-3-5-------11111111--33333333---------------
D|-0-----0-0-----------0-----0-0-----------0------0-0----------------------------------

guest
You may want to rate the tab now too:
select rating
Wanna post a correction for this tab? Suggest correction