Oops, an error
Loading. Please wait.

Myths Photographs tab

version 1
version 1

Whole song

Interactive

by InMe
6,668 views 6 this week
5 commentsread comments
1 2 3 4 5
x 7
add to favorites
×
Save as Personal and add changes to this tab that will be seen only by you. Learn more ›
×
You can save this tab as Personal to edit and correct it or add notes. All changes will be seen only by you. Learn more »
launch autoscroll
font size
0
reset
how to read this tab
guitar tuner
edit
Autoscroll
slow
fast
+/-
esc
set tempo
stop
Author
                              Myths & Photographs                               


                                                                            InMe
Rhythm guitar 


Intro
     W                   W                   W                  
E||-------------------|-------------------|--------------------|
B||-------------------|-------------------|--------------------|
A||-------------------|-------------------|--3b----------------|
D||--0----------------|--L----------------|--L-----------------|
A||--0----------------|--L----------------|--L-----------------|
D||--0----------------|--L----------------|--L-----------------|


                     Riff
                       T T T T T T T T T T T T T T T T  
  H.           Q       S S S S S S S S S S S S S S S S  
--------------------|----------------------------------|
--------------------|----------------------------------|
--L-----------------|----------------------------------|
--L-----------------|--7-4---------7-4---------7-4-----|
--L-----------------|------7-4---------7-4---------7-3-|
--L-----------------|----------7-4---------7-4---------|


    T T T T T T T T T T T T  T T T    T    T    T    T    T    T    T    T     
  S S S S S S S S S S S S S  S S S    S  S S  S S  S S  S S  S S  S S  S S  S  
-----------------------------------|------------------------------------------|
-----------------------------------|------------------------------------------|
-----------------------------------|------------------------------------------|
----7-3---------7-3-----9-3-10-3-9-|--4p-0-----------4p-0-----------4p-0------|
--L-----7-3---------7-3------------|-------4p-0-----------4p-0-----------4p-0-|
------------7-3--------------------|------------4p-0-----------4p-0-----------|


  T  T T  T T  T T  T T  T T  T T  T T  T  
  S  S S  S S  S S  S S  S S  S S  S S  S  
------------------------------------------|
------------------------------------------|
-----------------7-11-7-------------------|
------------7-11--------11-7--------------|
-------7-11------------------11-7---------|
--7-11----------------------------11-7-11-|


  T  T T  T T  T T  T T  T T  T T  T T  T  
  S  S S  S S  S S  S S  S S  S S  S S  S  
------------------------------------------|
----------------------9-12-9--------------|
-----------------9-12--------12-9---------|
------------9-12------------------12-9----|
-------9-12----------------------------12-|
--9-12------------------------------------|


   T  T  T  T  T  T  T  T  T  T  T  T  T  T  T  T  
   S  S  S  S  S  S  S  S  S  S  S  S  S  S  S  S  
--------------------------------------------------|
--------------------------------------------------|
--------------------11-12-11-14-11-12-11----------|
--------------11-12----------------------14-11----|
--------11-12----------------------------------12-|
--11-12-------------------------------------------|


   T  T  T  T  T  T  T  T  T  T  T  T  T  T  T  T  
   S  S  S  S  S  S  S  S  S  S  S  S  S  S  S  S  
--------------------------------------------------|
--------------------------------------------------|
--------------------12-14-12-16-12----------------|
--------------11-12----------------16-12----------|
--------12-14----------------------------16-12----|
--12-14----------------------------------------16-|


   T  T  T  T  T  T  T                 T T T T T T T T T T T T T T T T  
   S  S  S  S  S  S  E  S E.  S E.     S S S S S S S S S S S S S S S S  
------------------------------------|----------------------------------|
------------------------------------|----------------------------------|
--------------12-14-12--------------|----------------------------------|
------------------------x-0---x-3---|--7-4---------7-4---------7-4-----|
-----------17-----------x-0---x-3---|------7-4---------7-4---------7-3-|
--12-14-12--------------x-0---x-3---|----------7-4---------7-4---------|


    T T T T T T T T T T T T  T T T    T    T    T    T    T    T    T    T     
  S S S S S S S S S S S S S  S S S    S  S S  S S  S S  S S  S S  S S  S S  S  
-----------------------------------|------------------------------------------|
-----------------------------------|------------------------------------------|
-----------------------------------|------------------------------------------|
----7-3---------7-3-----9-3-10-3-9-|--4p-0-----------4p-0-----------4p-0------|
--L-----7-3---------7-3------------|-------4p-0-----------4p-0-----------4p-0-|
------------7-3--------------------|------------4p-0-----------4p-0-----------|


  T  T T  T T  T T  T T  T T  T T  T T  T  
  S  S S  S S  S S  S S  S S  S S  S S  S  
------------------------------------------|
------------------------------------------|
-----------------7-11-7-------------------|
------------7-11--------11-7--------------|
-------7-11------------------11-7---------|
--7-11----------------------------11-7-11-|


  T  T T  T T  T T  T T  T T  T T  T T  T  
  S  S S  S S  S S  S S  S S  S S  S S  S  
------------------------------------------|
----------------------9-12-9--------------|
-----------------9-12--------12-9---------|
------------9-12------------------12-9----|
-------9-12----------------------------12-|
--9-12------------------------------------|


   T  T  T  T  T  T  T  T  T  T  T  T  T  T  T  T  
   S  S  S  S  S  S  S  S  S  S  S  S  S  S  S  S  
--------------------------------------------------|
--------------------------------------------------|
--------------------11-12-11-14-11-12-11----------|
--------------11-12----------------------14-11----|
--------11-12----------------------------------12-|
--11-12-------------------------------------------|


   T  T  T  T  T  T  T  T  T  T  T  T  T  T  T  T  
   S  S  S  S  S  S  S  S  S  S  S  S  S  S  S  S  
--------------------------------------------------|
--------------------------------------------------|
--------------------12-14-12-16-12----------------|
--------------11-12----------------16-12----------|
--------12-14----------------------------16-12----|
--12-14----------------------------------------16-|


                                     Verse
   T  T  T  T  T  T  T                 PM PM    PM PM PM PM    PM PM  
   S  S  S  S  S  S  E  S E.  S E.     E  E  E  S  E  S  E  E  S  S   
------------------------------------|--------------------------------|
------------------------------------|--------------------------------|
--------------12-14-12--------------|--------------------------------|
------------------------x-0---x-3---|--------9--------------9--------|
-----------17-----------x-0---x-3---|--7--7-----7--7--7--7-----7--7--|
--12-14-12--------------x-0---x-3---|--7--7-----7--7--7--7-----7--7--|


  PM PM    PM PM PM PM            PM PM    PM PM PM PM    PM PM  
  E  E  E  S  E  S  E  E.   S     E  E  E  S  E  S  E  E  S  S   
-------------------------------|--------------------------------|
-------------------------------|--------------------------------|
-------------------------------|--------------------------------|
--------9--------------9~---L\-|--------6--------------6--------|
--7--7-----7--7--7--7----------|--4--4-----4--4--4--4-----4--4--|
--7--7-----7--7--7--7----------|--4--4-----4--4--4--4-----4--4--|


  PM PM    PM PM PM PM   SH       PM PM    PM PM PM PM    PM PM  
  E  E  E  S  E  S  E    Q        E  E  E  S  E  S  E  E  S  S   
-------------------------------|--------------------------------|
-------------------------------|--------------------------------|
-------------------------------|--------------------------------|
--------6--------------<>6~----|--------6--------------6--------|
--4--4-----4--4--4--4----------|--0--0-----0--0--0--0-----0--0--|
--4--4-----4--4--4--4----------|--0--0-----0--0--0--0-----0--0--|


  PM PM    PM PM PM PM    PM PM    PM PM    PM PM PM PM    PM PM  
  E  E  E  S  E  S  E  E  S  S     E  E  E  S  E  S  E  E  S  S   
--------------------------------|--------------------------------|
--------------------------------|--------------------------------|
--------------------------------|--------------------------------|
--------6--------------6--------|--------6--------------6--------|
--0--0-----0--0--0--0-----0--0--|--0--0-----0--0--0--0-----0--0--|
--0--0-----0--0--0--0-----0--0--|--0--0-----0--0--0--0-----0--0--|


                                      PM PM    PM PM PM PM    PM PM  
  S  S  E  E  S  S  E  E  S  S  E     E  E  E  S  E  S  E  E  S  S   
-----------------------------------|--------------------------------|
-----------------------------------|--------------------------------|
-----------------------------------|--------------------------------|
--6h-7p-6-----6h-7p-6-----6h-7p-6--|--------9--------------9--------|
-----------7-----------7-----------|--7--7-----7--7--7--7-----7--7--|
-----------------------------------|--7--7-----7--7--7--7-----7--7--|


  PM PM    PM PM PM PM            PM PM    PM PM PM PM    PM PM  
  E  E  E  S  E  S  E  E.   S     E  E  E  S  E  S  E  E  S  S   
-------------------------------|--------------------------------|
-------------------------------|--------------------------------|
-------------------------------|--------------------------------|
--------9--------------9~---L\-|--------6--------------6--------|
--7--7-----7--7--7--7----------|--4--4-----4--4--4--4-----4--4--|
--7--7-----7--7--7--7----------|--4--4-----4--4--4--4-----4--4--|


  PM PM    PM PM PM PM                                            
  E  E  E  S  E  S  E  E.   S     S S S S E  S S S  S S S E  S S  
-------------------------------|---------------------------------|
-------------------------------|--7-7-7---7--7-7-7s-9-9---9--9-9-|
-------------------------------|---------------------------------|
--------6--------------6~---L\-|--4-4-4---4--4-4-4s-6-6---6--6-6-|
--4--4-----4--4--4--4----------|---------------------------------|
--4--4-----4--4--4--4----------|---------------------------------|


  S   S  S S  E   S  S  S   S  S S  E   S  S  
---------------------------------------------|
--9s-10-10---10--10-10-10s-12-12---12--12-12-|
---------------------------------------------|
--6s--7--7----7---7--7--7s--9--9----9---9--9-|
---------------------------------------------|
---------------------------------------------|


   S   S  S S  E   S  S  S   S  S S  E   S  S  
----------------------------------------------|
--12s-14-14---14--14-14-14s-15-15---15--15-15-|
----------------------------------------------|
---9s-11-11---11--11-11-11s-12-12---12--12-12-|
----------------------------------------------|
----------------------------------------------|


   S   S  S S  E   S  S  S   S  S S  E  E    
--------------------------------------------|
--15s-17-17---17--17-17-17s-19-19---19--L\--|
--------------------------------------------|
--12s-14-14---14--14-14-14s-16-16---16--L\--|
--------------------------------------------|
--------------------------------------------|


Break (1:15)
  S S S S S  S S S S S S S S S S  S    S S S S S S S S S  S S S   Q     
------------------------------------|----------------------------------|
------------------------------------|--------------7---7s-9---9s-10----|
------------------------------------|-----------------------7----------|
--2-0-2-0-2h-4-0--------------------|----7-0-7-9-7---7-----------------|
-----------------2-0-2-4-0-4-0-4s-5-|--0-------------------------------|
------------------------------------|----------------------------------|


Pre-chorus
  PM PM       PM PM       PM PM       PM PM       PM PM       PM PM     
  S  S  E  E  S  S  E  E  S  S  E     S  S  E  E  S  S  E  E  S  S  E   
-----------------------------------|-----------------------------------|
-----------------------------------|-----------------------------------|
-----------------------------------|-----------------------------------|
--------7--7--------7--7--------7--|--------7--7--------7--7--------6--|
--4--4--------4--4--------4--4-----|--0--0--------0--0--------0--0-----|
--4--4--------4--4--------4--4-----|--0--0--------0--0--------0--0-----|


  PM PM       PM PM       PM PM       PM PM         PM PM       PM PM     
  S  S  E  E  S  S  E  E  S  S  E     S  S   E   E  S  S  E  E  S  S  E   
-----------------------------------|-------------------------------------|
-----------------------------------|-------------------------------------|
-----------------------------------|-------------------------------------|
--------6--6--------6--6--------6--|--------11--11--------9--9--------9--|
--2--2--------2--2--------2--2-----|--7--7----------7--7--------7--7-----|
--2--2--------2--2--------2--2-----|--7--7----------7--7--------7--7-----|


(harmony guitar)
  PM PM       PM PM       PM PM       PM PM       PM PM       PM PM     
  S  S  E  E  S  S  E  E  S  S  E     S  S  E  E  S  S  E  E  S  S  E   
-----------------------------------|-----------------------------------|
-----------------------------------|-----------------------------------|
--------4--4--------4--4--------4--|--------4--4--------5--5--------2--|
-----------------------------------|-----------------------------------|
--4--4--------4--4--------4--4-----|--0--0--------0--0--------0--0-----|
--4--4--------4--4--------4--4-----|--0--0--------0--0--------0--0-----|


  PM PM       PM PM       PM PM       PM PM       PM PM               
  S  S  E  E  S  S  E  E  S  S  E     S  S  E  E  S  S   Q     Q      
-----------------------------------|---------------------------------|
-----------------------------------|---------------------------------|
--------2--2--------2--2--------2--|---------------------------------|
-----------------------------------|--------9--9--------11-----------|
--2--2--------2--2--------2--2-----|--7--7--------7--7---------------|
--2--2--------2--2--------2--2-----|--7--7--------7--7--------12\----|


Chorus (backing guitar)
  S  S S S S S S  S S S S S S  S S S     S  S S S S S  S  S S S S S  S  S S S  
-------------------------------------|----------------------------------------|
--9-10-0-0-0-0-9-10-0-0-0-0-9-10-0-0-|----------------------------------------|
-------------------------------------|--11-12-0-0-0-0-11-12-0-0-0-0-11-12-0-0-|
-------------------------------------|----------------------------------------|
-------------------------------------|----------------------------------------|
-------------------------------------|----------------------------------------|


  S  S S S S S S  S S S S S S  S S S     S  S S S S S  S  S S S S S  S  S S S  
-------------------------------------|----------------------------------------|
--9-10-0-0-0-0-9-10-0-0-0-0-9-10-0-0-|----------------------------------------|
-------------------------------------|--14-16-0-0-0-0-14-16-0-0-0-0-14-16-0-0-|
-------------------------------------|----------------------------------------|
-------------------------------------|----------------------------------------|
-------------------------------------|----------------------------------------|


                                                             NH   NH   NH   NH  
  S  S S S S S S  S S S S S S  S S S     S  S S S S S  S S   E    E    E    E   
-------------------------------------|--------------------------<>5------------|
--9-10-0-0-0-0-9-10-0-0-0-0-9-10-0-0-|---------------------<>5-------<>5-------|
-------------------------------------|--11-12-0-0-0-0-12-0----------------<>5--|
-------------------------------------|-----------------------------------------|
-------------------------------------|-----------------------------------------|
-------------------------------------|-----------------------------------------|


  S  S S S S S S  S S S S S S  S S S     S  S S S S S  S  S S S S S  Q      
-------------------------------------|-------------------------------------|
--9-10-0-0-0-0-9-10-0-0-0-0-9-10-0-0-|-------------------------------------|
-------------------------------------|--14-16-0-0-0-0-14-16-0-0-0-0-18b----|
-------------------------------------|-------------------------------------|
-------------------------------------|-------------------------------------|
-------------------------------------|-------------------------------------|


Verse
  PM PM    PM PM PM PM    PM PM    PM PM    PM PM PM PM          
  E  E  E  S  E  S  E  E  S  S     E  E  E  S  E  S  E  E.   S   
--------------------------------|-------------------------------|
--------------------------------|-------------------------------|
--------------------------------|-------------------------------|
--------9--------------9--------|--------9--------------9~---L\-|
--7--7-----7--7--7--7-----7--7--|--7--7-----7--7--7--7----------|
--7--7-----7--7--7--7-----7--7--|--7--7-----7--7--7--7----------|


  PM PM    PM PM PM PM    PM PM    PM PM    PM PM PM PM   SH     
  E  E  E  S  E  S  E  E  S  S     E  E  E  S  E  S  E    Q      
--------------------------------|-------------------------------|
--------------------------------|-------------------------------|
--------------------------------|-------------------------------|
--------6--------------6--------|--------6--------------<>6~----|
--4--4-----4--4--4--4-----4--4--|--4--4-----4--4--4--4----------|
--4--4-----4--4--4--4-----4--4--|--4--4-----4--4--4--4----------|


  PM PM    PM PM PM PM    PM PM    PM PM    PM PM PM PM    PM PM  
  E  E  E  S  E  S  E  E  S  S     E  E  E  S  E  S  E  E  S  S   
--------------------------------|--------------------------------|
--------------------------------|--------------------------------|
--------------------------------|--------------------------------|
--------6--------------6--------|--------6--------------6--------|
--0--0-----0--0--0--0-----0--0--|--0--0-----0--0--0--0-----0--0--|
--0--0-----0--0--0--0-----0--0--|--0--0-----0--0--0--0-----0--0--|


                                 (hammer-on harmonies)
  PM PM    PM PM PM PM    PM PM                                           
  E  E  E  S  E  S  E  E  S  S     S   S  E   E  S   S  E   E  S   S  E   
--------------------------------|----------------------------------------|
--------------------------------|----------------------------------------|
--------------------------------|----------------------------------------|
--------6--------------6--------|--9h-11p-9------9h-11p-9------9h-11p-9--|
--0--0-----0--0--0--0-----0--0--|------------11------------11------------|
--0--0-----0--0--0--0-----0--0--|----------------------------------------|


  PM PM    PM PM PM PM    PM PM    PM PM    PM PM PM PM          
  E  E  E  S  E  S  E  E  S  S     E  E  E  S  E  S  E  E.   S   
--------------------------------|-------------------------------|
--------------------------------|-------------------------------|
--------------------------------|-------------------------------|
--------9--------------9--------|--------9--------------9~---L\-|
--7--7-----7--7--7--7-----7--7--|--7--7-----7--7--7--7----------|
--7--7-----7--7--7--7-----7--7--|--7--7-----7--7--7--7----------|


  PM PM    PM PM PM PM    PM PM    PM PM    PM PM PM PM          
  E  E  E  S  E  S  E  E  S  S     E  E  E  S  E  S  E  E.   S   
--------------------------------|-------------------------------|
--------------------------------|-------------------------------|
--------------------------------|-------------------------------|
--------6--------------6--------|--------6--------------6~---L\-|
--4--4-----4--4--4--4-----4--4--|--4--4-----4--4--4--4----------|
--4--4-----4--4--4--4-----4--4--|--4--4-----4--4--4--4----------|


  S S S S E  S S S  S S S E  S S    S   S  S S  E   S  S  S   S  S S  E   S  S  
---------------------------------|---------------------------------------------|
--7-7-7---7--7-7-7s-9-9---9--9-9-|--9s-10-10---10--10-10-10s-12-12---12--12-12-|
---------------------------------|---------------------------------------------|
--4-4-4---4--4-4-4s-6-6---6--6-6-|--6s--7--7----7---7--7--7s--9--9----9---9--9-|
---------------------------------|---------------------------------------------|
---------------------------------|---------------------------------------------|


   S   S  S S  E   S  S  S   S  S S  E   S  S  
----------------------------------------------|
--12s-14-14---14--14-14-14s-15-15---15--15-15-|
----------------------------------------------|
---9s-11-11---11--11-11-11s-12-12---12--12-12-|
----------------------------------------------|
----------------------------------------------|


   S   S  S S  E   S  S  S   S  S S  E  E    
--------------------------------------------|
--15s-17-17---17--17-17-17s-19-19---19--L\--|
--------------------------------------------|
--12s-14-14---14--14-14-14s-16-16---16--L\--|
--------------------------------------------|
--------------------------------------------|


Break (2:20)
   T     T     T         T         T     T         T   
   S  S  S  S  S   S  S  S   S  S  S  S  S   S  S  S   
------------------------------------------------------|
------------------------------------------------------|
--16p-4-16p-4-16s-14p-4-14s-12p-4-12p-4-12s-11p-4-11s-|
------------------------------------------------------|
------------------------------------------------------|
------------------------------------------------------|


                                            Pre-chorus
                                              PM PM       PM PM       PM PM     
                     |--3--| |--3--|                                            
  S  S  S  S S  S E  S  S  S S  S  S Q        S  S  E  E  S  S  E  E  S  S  E   
-------------------------------------------|-----------------------------------|
-------------------------------------------|-----------------------------------|
--7p-4h-7p-4-7s-5-4--4p-2p-0---------------|-----------------------------------|
-----------------------------4p-2p-0-------|--------7--7--------7--7--------7--|
-------------------------------------4b----|--4--4--------4--4--------4--4-----|
-------------------------------------------|--4--4--------4--4--------4--4-----|


  PM PM       PM PM       PM PM       PM PM       PM PM       PM PM     
  S  S  E  E  S  S  E  E  S  S  E     S  S  E  E  S  S  E  E  S  S  E   
-----------------------------------|-----------------------------------|
-----------------------------------|-----------------------------------|
-----------------------------------|-----------------------------------|
--------7--7--------7--7--------6--|--------6--6--------6--6--------6--|
--0--0--------0--0--------0--0-----|--2--2--------2--2--------2--2-----|
--0--0--------0--0--------0--0-----|--2--2--------2--2--------2--2-----|


  PM PM         PM PM       PM PM       PM PM       PM PM       PM PM     
  S  S   E   E  S  S  E  E  S  S  E     S  S  E  E  S  S  E  E  S  S  E   
-------------------------------------|-----------------------------------|
-------------------------------------|-----------------------------------|
-------------------------------------|--------4--4--------4--4--------4--|
--------11--11--------9--9--------9--|-----------------------------------|
--7--7----------7--7--------7--7-----|--4--4--------4--4--------4--4-----|
--7--7----------7--7--------7--7-----|--4--4--------4--4--------4--4-----|


  PM PM       PM PM       PM PM       PM PM       PM PM       PM PM     
  S  S  E  E  S  S  E  E  S  S  E     S  S  E  E  S  S  E  E  S  S  E   
-----------------------------------|-----------------------------------|
-----------------------------------|-----------------------------------|
--------4--4--------5--5--------2--|--------2--2--------2--2--------2--|
-----------------------------------|-----------------------------------|
--0--0--------0--0--------0--0-----|--2--2--------2--2--------2--2-----|
--0--0--------0--0--------0--0-----|--2--2--------2--2--------2--2-----|


                                  Chorus (rhythm guitar)
  PM PM       PM PM                                       
  S  S  E  E  S  S   Q     Q        E.  S E  Q.     Q     
---------------------------------|-----------------------|
---------------------------------|-----------------------|
---------------------------------|-----------------------|
--------9--9--------11-----------|--0---0-0--0------0----|
--7--7--------7--7---------------|--0---0-0--0------0----|
--7--7--------7--7--------12\----|--0---0-0--0------0----|


  E.  S E  Q.     Q       E.  S E  Q    E  Q     
-----------------------|------------------------|
-----------------------|------------------------|
-----------------------|------------------------|
--2---2-2--2------2----|--4---4-4--4----4--4----|
--2---2-2--2------2----|--4---4-4--4----4--4----|
--2---2-2--2------2----|--4---4-4--4----4--4----|


       PM PM PM PM           PM PM PM PM                                
  S  S S  S  S  S  S  S S  S S  S  S  S  S  S    E.   S E  Q.     Q     
----------------------------------------------|------------------------|
----------------------------------------------|------------------------|
----------------------------------------------|------------------------|
----------------------------------------------|-------0-0--0------0----|
-------0--0--0--0------------0--0--0--0-------|-------0-0--0------0----|
--6p-0-0--0--0--0--6p-0-7p-0-0--0--0--0--6p-0-|--6b---0-0--0------0----|


  E.  S E  Q.     Q       E.  S E  Q    E  Q       E.  S E  Q    E  Q     
-----------------------|------------------------|------------------------|
-----------------------|------------------------|------------------------|
-----------------------|------------------------|------------------------|
--2---2-2--2------2----|--4---4-4--4----4--4----|--4---4-4--4----x--4----|
--2---2-2--2------2----|--4---4-4--4----4--4----|--4---4-4--4----x--4----|
--2---2-2--2------2----|--4---4-4--4----4--4----|--4---4-4--4----x--4----|


Interlude (w/ wah-wah)
  PM PM    PM PM PM PM    PM PM    PM PM    PM PM PM PM           
  E  E  E  S  E  S  E  E  S  S     E  E  E  S  E  S  E  E.    S   
--------------------------------|--------------------------------|
--------------------------------|--------------------------------|
--------------------------------|--------------------------------|
--------9--------------9--------|--------9--------------9b~---L\-|
--7--7-----7--7--7--7-----7--7--|--7--7-----7--7--7--7-----------|
--7--7-----7--7--7--7-----7--7--|--7--7-----7--7--7--7-----------|


  PM PM    PM PM PM PM    PM PM    PM PM    PM PM PM PM         
  E  E  E  S  E  S  E  E  S  S     E  E  E  S  E  S  E  Q       
--------------------------------|------------------------------|
--------------------------------|------------------------------|
--------------------------------|------------------------------|
--------6--------------6--------|--------6--------------6b~----|
--4--4-----4--4--4--4-----4--4--|--4--4-----4--4--4--4---------|
--4--4-----4--4--4--4-----4--4--|--4--4-----4--4--4--4---------|


  PM PM    PM PM PM PM    PM PM    PM PM    PM PM PM PM    PM PM  
  E  E  E  S  E  S  E  E  S  S     E  E  E  S  E  S  E  E  S  S   
--------------------------------|--------------------------------|
--------------------------------|--------------------------------|
--------------------------------|--------------------------------|
--------6--------------6--------|--------6--------------6--------|
--0--0-----0--0--0--0-----0--0--|--0--0-----0--0--0--0-----0--0--|
--0--0-----0--0--0--0-----0--0--|--0--0-----0--0--0--0-----0--0--|


  PM PM    PM PM PM PM    PM PM                                      
  E  E  E  S  E  S  E  E  S  S     S  S  E  E  S  S  E  E  S  S  E   
--------------------------------|-----------------------------------|
--------------------------------|-----------------------------------|
--------------------------------|-----------------------------------|
--------6--------------6--------|--6h-7p-6-----6h-7p-6-----6h-7p-6--|
--0--0-----0--0--0--0-----0--0--|-----------7-----------7-----------|
--0--0-----0--0--0--0-----0--0--|-----------------------------------|


  PM PM    PM PM PM PM    PM PM    PM PM    PM PM PM PM           
  E  E  E  S  E  S  E  E  S  S     E  E  E  S  E  S  E  E.    S   
--------------------------------|--------------------------------|
--------------------------------|--------------------------------|
--------------------------------|--------------------------------|
--------9--------------9--------|--------9--------------9b~---L\-|
--7--7-----7--7--7--7-----7--7--|--7--7-----7--7--7--7-----------|
--7--7-----7--7--7--7-----7--7--|--7--7-----7--7--7--7-----------|


  PM PM    PM PM PM PM    PM PM    PM PM    PM PM PM PM         
  E  E  E  S  E  S  E  E  S  S     E  E  E  S  E  S  E  Q       
--------------------------------|------------------------------|
--------------------------------|------------------------------|
--------------------------------|------------------------------|
--------6--------------6--------|--------6--------------6b~----|
--4--4-----4--4--4--4-----4--4--|--4--4-----4--4--4--4---------|
--4--4-----4--4--4--4-----4--4--|--4--4-----4--4--4--4---------|


  S S S S S  S S S S   S  S  S  S   S  S  S  
--------------------------------------------|
--7-7-7-7-7s-9-x-x-9s-10--x--x-10s-12--x--x-|
---------------x-x--------x--x---------x--x-|
--4-4-4-4-4s-6-x-x-6s--7--x--x--7s--9--x--x-|
--------------------------------------------|
--------------------------------------------|


   S   S  S  S  S   S  S  S  S   S  S  S  S   S  S  S  
------------------------------------------------------|
--12s-14--x--x-14s-15--x--x-15s-17--x--x-17s-19--x--x-|
----------x--x---------x--x---------x--x---------x--x-|
---9s-11--x--x-11s-12--x--x-12s-14--x--x-14s-16--x--x-|
------------------------------------------------------|
------------------------------------------------------|


   S   S  S  S  S   S  S  S  S  S  S  S  S  S  S  S  
----------------------------------------------------|
--19s-21--x--x-21s-22--x--x-22-22-22-22-22-22-22-22-|
----------x--x---------x--x-------------------------|
--16s-18--x--x-18s-19--x--x-19-19-19-19-19-19-19-19-|
----------------------------------------------------|
----------------------------------------------------|


                                           Riff (wah-wah off)
                                              T T T T T T T T T T T T T T T T  
   S  S  S  S  S  S  S  S  S  S  S  S Q       S S S S S S S S S S S S S S S S  
-------------------------------------------|----------------------------------|
--22-22-22-22-22-22-22-22-22-22-22-22------|----------------------------------|
-------------------------------------------|----------------------------------|
--19-19-19-19-19-19-19-19-19-19-19-19------|--7-4---------7-4---------7-4-----|
-------------------------------------------|------7-4---------7-4---------7-3-|
-------------------------------------------|----------7-4---------7-4---------|


    T T T T T T T T T T T T  T T T    T    T    T    T    T    T    T    T     
  S S S S S S S S S S S S S  S S S    S  S S  S S  S S  S S  S S  S S  S S  S  
-----------------------------------|------------------------------------------|
-----------------------------------|------------------------------------------|
-----------------------------------|------------------------------------------|
----7-3---------7-3-----9-3-10-3-9-|--4p-0-----------4p-0-----------4p-0------|
--L-----7-3---------7-3------------|-------4p-0-----------4p-0-----------4p-0-|
------------7-3--------------------|------------4p-0-----------4p-0-----------|


  T  T T  T T  T T  T T  T T  T T  T T  T  
  S  S S  S S  S S  S S  S S  S S  S S  S  
------------------------------------------|
------------------------------------------|
-----------------7-11-7-------------------|
------------7-11--------11-7--------------|
-------7-11------------------11-7---------|
--7-11----------------------------11-7-11-|


  T  T T  T T  T T  T T  T T  T T  T T  T  
  S  S S  S S  S S  S S  S S  S S  S S  S  
------------------------------------------|
----------------------9-12-9--------------|
-----------------9-12--------12-9---------|
------------9-12------------------12-9----|
-------9-12----------------------------12-|
--9-12------------------------------------|


   T  T  T  T  T  T  T  T  T  T  T  T  T  T  T  T  
   S  S  S  S  S  S  S  S  S  S  S  S  S  S  S  S  
--------------------------------------------------|
--------------------------------------------------|
--------------------11-12-11-14-11-12-11----------|
--------------11-12----------------------14-11----|
--------11-12----------------------------------12-|
--11-12-------------------------------------------|


   T  T  T  T  T  T  T  T  T  T  T  T  T  T  T  T  
   S  S  S  S  S  S  S  S  S  S  S  S  S  S  S  S  
--------------------------------------------------|
--------------------------------------------------|
--------------------12-14-12-16-12----------------|
--------------11-12----------------16-12----------|
--------12-14----------------------------16-12----|
--12-14----------------------------------------16-|


                                     Last pre-chorus
   T  T  T  T  T  T  T                 PM PM       PM PM       PM PM     
   S  S  S  S  S  S  E  S E.  S E.     S  S  E  E  S  S  E  E  S  S  E   
------------------------------------|-----------------------------------|
------------------------------------|-----------------------------------|
--------------12-14-12--------------|-----------------------------------|
------------------------x-0---x-3---|--------7--7--------7--7--------7--|
-----------17-----------x-0---x-3---|--4--4--------4--4--------4--4-----|
--12-14-12--------------x-0---x-3---|--4--4--------4--4--------4--4-----|


  PM PM       PM PM       PM PM       PM PM       PM PM       PM PM     
  S  S  E  E  S  S  E  E  S  S  E     S  S  E  E  S  S  E  E  S  S  E   
-----------------------------------|-----------------------------------|
-----------------------------------|-----------------------------------|
-----------------------------------|-----------------------------------|
--------7--7--------7--7--------6--|--------6--6--------6--6--------6--|
--0--0--------0--0--------0--0-----|--2--2--------2--2--------2--2-----|
--0--0--------0--0--------0--0-----|--2--2--------2--2--------2--2-----|


  PM PM         PM PM       PM PM       PM PM       PM PM       PM PM     
  S  S   E   E  S  S  E  E  S  S  E     S  S  E  E  S  S  E  E  S  S  E   
-------------------------------------|-----------------------------------|
-------------------------------------|-----------------------------------|
-------------------------------------|--------4--4--------4--4--------4--|
--------11--11--------9--9--------9--|-----------------------------------|
--7--7----------7--7--------7--7-----|--4--4--------4--4--------4--4-----|
--7--7----------7--7--------7--7-----|--4--4--------4--4--------4--4-----|


  PM PM       PM PM       PM PM       PM PM       PM PM       PM PM     
  S  S  E  E  S  S  E  E  S  S  E     S  S  E  E  S  S  E  E  S  S  E   
-----------------------------------|-----------------------------------|
-----------------------------------|-----------------------------------|
--------4--4--------5--5--------2--|--------2--2--------2--2--------2--|
-----------------------------------|-----------------------------------|
--0--0--------0--0--------0--0-----|--2--2--------2--2--------2--2-----|
--0--0--------0--0--------0--0-----|--2--2--------2--2--------2--2-----|


  PM PM       PM PM       PM PM       PM PM       PM PM       PM PM     
  S  S  E  E  S  S  E  E  S  S  E     S  S  E  E  S  S  E  E  S  S  E   
-----------------------------------|-----------------------------------|
-----------------------------------|-----------------------------------|
-----------------------------------|--------4--4--------4--4--------4--|
--------9--9--------9--9--------9--|-----------------------------------|
--7--7--------7--7--------7--7-----|--4--4--------4--4--------4--4-----|
--7--7--------7--7--------7--7-----|--4--4--------4--4--------4--4-----|


  PM PM       PM PM       PM PM       PM PM       PM PM       PM PM     
  S  S  E  E  S  S  E  E  S  S  E     S  S  E  E  S  S  E  E  S  S  E   
-----------------------------------|-----------------------------------|
-----------------------------------|-----------------------------------|
--------4--4--------5--5--------2--|--------2--2--------2--2--------2--|
-----------------------------------|-----------------------------------|
--0--0--------0--0--------0--0-----|--2--2--------2--2--------2--2-----|
--0--0--------0--0--------0--0-----|--2--2--------2--2--------2--2-----|


  PM PM         PM PM       PM PM       PM PM       PM PM       PM PM     
  S  S   E   E  S  S  E  E  S  S  E     S  S  E  E  S  S  E  E  S  S  E   
-------------------------------------|-----------------------------------|
-------------------------------------|-----------------------------------|
-------------------------------------|--------4--4--------4--4--------4--|
--------11--11--------9--9--------9--|-----------------------------------|
--7--7----------7--7--------7--7-----|--4--4--------4--4--------4--4-----|
--7--7----------7--7--------7--7-----|--4--4--------4--4--------4--4-----|


  PM PM       PM PM       PM PM       PM PM       PM PM       PM PM     
  S  S  E  E  S  S  E  E  S  S  E     S  S  E  E  S  S  E  E  S  S  E   
-----------------------------------|-----------------------------------|
-----------------------------------|-----------------------------------|
--------4--4--------5--5--------2--|--------2--2--------2--2--------2--|
-----------------------------------|-----------------------------------|
--0--0--------0--0--------0--0-----|--2--2--------2--2--------2--2-----|
--0--0--------0--0--------0--0-----|--2--2--------2--2--------2--2-----|

          
                                  Riff/outro
  PM PM       PM PM                 T T T T T T T T T T T T T T T T  
  S  S  E  E  S  S   Q     Q        S S S S S S S S S S S S S S S S  
---------------------------------|----------------------------------|
---------------------------------|----------------------------------|
---------------------------------|----------------------------------|
--------9--9--------11-----------|--7-4---------7-4---------7-4-----|
--7--7--------7--7---------------|------7-4---------7-4---------7-3-|
--7--7--------7--7--------12\----|----------7-4---------7-4---------|


    T T T T T T T T T T T T  T T T    T    T    T    T    T    T    T    T     
  S S S S S S S S S S S S S  S S S    S  S S  S S  S S  S S  S S  S S  S S  S  
-----------------------------------|------------------------------------------|
-----------------------------------|------------------------------------------|
-----------------------------------|------------------------------------------|
----7-3---------7-3-----9-3-10-3-9-|--4p-0-----------4p-0-----------4p-0------|
--L-----7-3---------7-3------------|-------4p-0-----------4p-0-----------4p-0-|
------------7-3--------------------|------------4p-0-----------4p-0-----------|


  T  T T  T T  T T  T T  T T  T T  T T  T  
  S  S S  S S  S S  S S  S S  S S  S S  S  
------------------------------------------|
------------------------------------------|
-----------------7-11-7-------------------|
------------7-11--------11-7--------------|
-------7-11------------------11-7---------|
--7-11----------------------------11-7-11-|


  T  T T  T T  T T  T T  T T  T T  T T  T  
  S  S S  S S  S S  S S  S S  S S  S S  S  
------------------------------------------|
----------------------9-12-9--------------|
-----------------9-12--------12-9---------|
------------9-12------------------12-9----|
-------9-12----------------------------12-|
--9-12------------------------------------|


   T  T  T  T  T  T  T  T  T  T  T  T  T  T  T  T  
   S  S  S  S  S  S  S  S  S  S  S  S  S  S  S  S  
--------------------------------------------------|
--------------------------------------------------|
--------------------11-12-11-14-11-12-11----------|
--------------11-12----------------------14-11----|
--------11-12----------------------------------12-|
--11-12-------------------------------------------|


   T  T  T  T  T  T  T  T  T  T  T  T  T  T  T  T  
   S  S  S  S  S  S  S  S  S  S  S  S  S  S  S  S  
--------------------------------------------------|
--------------------------------------------------|
--------------------12-14-12-16-12----------------|
--------------11-12----------------16-12----------|
--------12-14----------------------------16-12----|
--12-14----------------------------------------16-|


   T  T  T  T  T  T  T                 T T T T T T T T T T T T T T T T  
   S  S  S  S  S  S  E  S E.  S E.     S S S S S S S S S S S S S S S S  
------------------------------------|----------------------------------|
------------------------------------|----------------------------------|
--------------12-14-12--------------|----------------------------------|
------------------------x-0---x-3---|--7-4---------7-4---------7-4-----|
-----------17-----------x-0---x-3---|------7-4---------7-4---------7-3-|
--12-14-12--------------x-0---x-3---|----------7-4---------7-4---------|


    T T T T T T T T T T T T  T T T    T    T    T    T    T    T    T    T     
  S S S S S S S S S S S S S  S S S    S  S S  S S  S S  S S  S S  S S  S S  S  
-----------------------------------|------------------------------------------|
-----------------------------------|------------------------------------------|
-----------------------------------|------------------------------------------|
----7-3---------7-3-----9-3-10-3-9-|--4p-0-----------4p-0-----------4p-0------|
--L-----7-3---------7-3------------|-------4p-0-----------4p-0-----------4p-0-|
------------7-3--------------------|------------4p-0-----------4p-0-----------|


  T  T T  T T  T T  T T  T T  T T  T T  T  
  S  S S  S S  S S  S S  S S  S S  S S  S  
------------------------------------------|
------------------------------------------|
-----------------7-11-7-------------------|
------------7-11--------11-7--------------|
-------7-11------------------11-7---------|
--7-11----------------------------11-7-11-|


  T  T T  T T  T T  T T  T T  T T  T T  T  
  S  S S  S S  S S  S S  S S  S S  S S  S  
------------------------------------------|
----------------------9-12-9--------------|
-----------------9-12--------12-9---------|
------------9-12------------------12-9----|
-------9-12----------------------------12-|
--9-12------------------------------------|


   T  T  T  T  T  T  T  T  T  T  T  T  T  T  T  T  
   S  S  S  S  S  S  S  S  S  S  S  S  S  S  S  S  
--------------------------------------------------|
--------------------------------------------------|
--------------------11-12-11-14-11-12-11----------|
--------------11-12----------------------14-11----|
--------11-12----------------------------------12-|
--11-12-------------------------------------------|


   T  T  T  T  T  T  T  T  T  T  T  T  T  T  T  T  
   S  S  S  S  S  S  S  S  S  S  S  S  S  S  S  S  
--------------------------------------------------|
--------------------------------------------------|
--------------------12-14-12-16-12----------------|
--------------11-12----------------16-12----------|
--------12-14----------------------------16-12----|
--12-14----------------------------------------16-|


   T  T  T  T  T  T  T                                    
   S  S  S  S  S  S  E  S E.  S E.     W                  
------------------------------------|-------------------||
------------------------------------|-------------------||
--------------12-14-12--------------|-------------------||
------------------------x-0---x-3---|-------------------||
-----------17-----------x-0---x-3---|-------------------||
--12-14-12--------------x-0---x-3---|-------------------||




Duration Legend
---------------
W - whole
H - half
Q - quarter
E - 8th
S - 16th
T - 32nd
X - 64th
. - note dotted
|-n-|  - n-tuplets


Tablature Legend
----------------
L - tied note
x - dead note
g - grace note
(n) - ghost note
> - accentuded note
NH - natural harmonic
AH - artificial harmonic
TH - tapped harmonic
SH - semi harmonic
PH - pitch harmonic
h - hammer on
p - pull off
b - bend
br - bendRelease
pb - preBend
pbr - preBendRelease
brb - bendReleaseBend
\n/ - tremolo bar dip
\n - tremolo bar dive
-/n - tremolo bar Release up
/n\ - tremolo bar inverted dip
/n - tremolo bar return
-\n - tremolo bar Release down
S - shift slide
s - legato slide
/ -  slide into from below or out of upwards
\ -  slide into from above or out of downwards
~ - vibrato
W - wide vibrato
tr - trill
TP - tremolo picking
T - tapping
S - slap
P - pop
< - fade in
^ - brush up
v - brush down
Suggest correction
Creating personal tab
Creating personal tab
You can edit any tab online and save it as your Personal.

You can edit, replace or remove any tab part or add personal notes – all changes will be seen only by you.

Personal tabs can be accessed anytime from any device, even offline.
Learn more »
comments
print report bad tab
5 comments total. Showing first comments.
0 reply
DTOE 20 Jan 25, 2008 04:11 AM

An incredible tab for an incredible song! Wanted to play this for ages, so cheers!

0 reply
Underdose 211 Feb 05, 2008 12:02 AM

You're welcome! And thanks for the compliment :D

0 reply
stratele 480 Aug 17, 2008 05:11 AM

amazing tab!

question... The intro tapping bits. Everything or about 99% is tapped? No pull offs, like from the 7's to 4's?

guest
You may want to rate the tab now too:
select rating
Wanna post a correction for this tab? Suggest correction