Oops, an error
Loading. Please wait.

Parting Gift tab

version 1
version 1

Whole song

Interactive

by InMe
1,915 views 1 this week
1 commentread comment
1 2 3 4 5
x 4
add to favorites
×
Save as Personal and add changes to this tab that will be seen only by you. Learn more ›
×
You can save this tab as Personal to edit and correct it or add notes. All changes will be seen only by you. Learn more »
launch autoscroll
font size
0
reset
how to read this tab
guitar tuner
edit
Autoscroll
slow
fast
+/-
esc
set tempo
stop
Author
The other tab has a few things wrong with it and isn't that detailed. This tab is 99%
- the only thing I am not sure about is the Bminor which seems to have some sort of added
but I can't make it out. The violins make it quite hard to hear the guitar at the end 
I think I nailed it. Enjoy, it's a beautiful song.

Standard tuning (EADGBe)

Main Progression (Verses + Chorus)
     G    F#/G     Cadd9
|----3-----3---|-----3-------|
|----3-----3---|-----3-------|
|----0-----0---|-----0-------|
|----0-----0---|--2--2-------|
|-2--2-----x---|--3--3-------|
|-3--3--2--2---|--x----------|

     G    F#/G     Cadd9
|----3-----3---|-----3---------------|
|----3-----3---|-----3------------(0)| Note: the bracketed notes
|----0-----0---|-----0-------(0h2)---| are only played on the
|----0-----0---|--2--2--(0h2)--------| second verse
|-2--2-----x---|--3--3---------------|
|-3--3--2--2---|--x------------------|

     G    F#/G       F    F[2]
|----3-----3---|-----1----0---|
|----3-----3---|-----1----0---|
|----0-----0---|-----2----2---|
|----0-----0---|-----3----3---|
|-2--2-----x---|--3--3----3---|
|-3--3--2--2---|--1-----------|

Asus2  Dsus2
|-0------0---(3)-(2)---------------------------| Note: the bracketed notes
|-0------3-----------(3)-----------------------| are only  played on the
|-2------2-------------------------------------| first verse. In other verses,
|-2------0-------------------------------------| the Dsus2 progresses to a
|-0---------------------------| Dmaj (x x 0----| 2 3 2) and then a
|-----------------------------| Dsus4 (x x 0---| 2 3 3)

Bridge:
 Bm  Csus2  Bm   Csus2
|-2----3----2----3-----|
|-3----3----3----3-----|
|-4----5----4----5-----|
|-4----5----4----5-----|
|-2----3----2----3-----|
|----------------------|

Last Chorus (Plucked):
|---3---3--3-3------------|
|----------3---3----------|
|----------0-----0--------|
|----------2---------2----|
|----------3-------3------|
|-3---2-------------------|

|---3---3--3-3------------|
|----------3---3-------0--|
|----------0--------0h2---|
|----------2-----0h2------|
|----------3--------------|
|-3---2-------------------|

|---3---3--3-1-0----------|
|-------3--3-----0--------|
|-------0--0-------2------|
|----------2--------------|
|-2---x----3--------------|
|-3---2-------------------|

|-0--------2-2---2--3~ ---|
|-1-1-0----3---3----3~ ---|
|-0-----2--2--------0~ ---|
|-2--------0--------0~ ---|
|-3-----------------2~ ---|
|-------------------3~ ---|

[Verse 1:]
You make me faint but you are worth it,
I'll walk you home if you ask it,
Its such a shame thats she never took the blame,
Shes never coming round to me,

[Verse 2:]
You step on your ciggarette,
You right you deserve it,
Who's to blame that shes never coming back?
Shes never coming back,
To me,

[Bridge:]
Please come back around to me before I drown,

[Chorus:]
This is my parting gift for you,
This is my last chance to be true,
Before I get older,
Before you get older,

[Chorus:]
This is my parting gift for you,
This is my last chance to be true,
Before I get older,
Before you get older,

[Chorus (plucked):]
This is my parting gift to you,
This is my last chance to be true,
Before I get older,
Before you get older,
And I drown,

            
            
Suggest correction
Creating personal tab
Creating personal tab
You can edit any tab online and save it as your Personal.

You can edit, replace or remove any tab part or add personal notes – all changes will be seen only by you.

Personal tabs can be accessed anytime from any device, even offline.
Learn more »
comments
print report bad tab
1 comment total.
0 reply
CrazyYaz 725 Jul 19, 2007 12:32 PM

thats quite a good tab, few minor changes buts its really good. Well done

guest
You may want to rate the tab now too:
select rating
Wanna post a correction for this tab? Suggest correction