Oops, an error
Loading. Please wait.

Single Of The Weak intro tab

version 1
version 1

Intro

Whole song

Interactive

by InMe
761 views 3 this week
2 commentsread comments
1 2 3 4 5
1 last vote to show rating
add to favorites
×
Save as Personal and add changes to this tab that will be seen only by you. Learn more ›
×
You can save this tab as Personal to edit and correct it or add notes. All changes will be seen only by you. Learn more »
launch autoscroll
font size
0
reset
how to read this tab
guitar tuner
edit
Autoscroll
slow
fast
+/-
esc
set tempo
stop
------------------------------------------------------------------------
         Single Of The Weak (intro) by Inme   Album  Herald Moth

------------------------------------------------------------------------
Tabbed by: Skillman1
Email: fatawuissah@hotmail.co.uk


Tuning: Drop tune, one step (DADGBE)

| *   staccato
| x   mute note
|  natural harmonic

  First tab ever, more or less correct (I hope :p) please rate, thanks :D

   E. S E E.E.E.S   S S E. E. E. S E E   Q   S S  E. S S S S S S S
E|----------------|--------------------|---------------------------|
B|----------------|--------------------|---------------------------|
G|----------------|--------------------|---------------------------|
D|----------------|------------------7-|---------------------------|
A|------4-5-4-----|-5h9-5--4-------5---|-0---9h12-9--0---5-7-9-7-5-|
D|-5--5-------5-5-|-----------5--5-----|-0-----------0-------------|
                                                     *
  E  E. S S  S   S   S  S  S  S E.   E. S E  E. E. E. S  S S E. E. E. S E E
|----------------------------------|--------------------|-------------------|
|----------------------------------|--------------------|-------------------|
|----------------------------------|--------------------|-------------------|
|---------x-<5> <5>-<5>-x-<3>-x----|--------------------|-----------------9-|
|(5)-0--0----------------------<3>-|------4--5--4-------|5h9-5--4-------5---|
|----0--0--------------------------|-5--5----------5--5-|----------5--5-----|
     *  *
  Q  S S S E. E S S S S  S S  E. E S S S S S S S E
|-----------------------|--------------------------|
|-----------------------|--------------------------|
|----6h9p6--------------|--------------------------|
|----------7----4h7p4---|--------------------------|
|-0-----------0-------5-|-(5)-0--0-x-9-7-0-5-4-----|
|-0-----------0---------|-----0--0-------------5-7-|
              *

| /   slide up
| \   slide down
| h   hammer-on
| p   pull-off
| ~   vibrato
|  natural harmonic
| x   Mute note
=============================================================================
Suggest correction
Creating personal tab
Creating personal tab
You can edit any tab online and save it as your Personal.

You can edit, replace or remove any tab part or add personal notes – all changes will be seen only by you.

Personal tabs can be accessed anytime from any device, even offline.
Learn more »
Give kudos to tab author, rate the tab!
1 2 3 4 5
comments
print report bad tab
2 comments total.
0 reply
xKnifekillerx 393 Dec 16, 2009 03:37 AM

this is mint. you should tab the rest.

0 reply
Azza Dutt 20 Jan 24, 2011 12:41 PM

Just finished working this out myself. This is 100% spot on from what I can tell.

guest
Wanna post a correction for this tab? Suggest correction