Oops, an error
Loading. Please wait.

Babilonia Tab

65 views 3 this week
no commentswrite comment
1 2 3 4 5
3 more votes to show rating
add to favorites
launch autoscroll
font size
0
reset
how to read this tab
guitar tuner
Autoscroll
slow
fast
+/-
esc
set tempo
stop
Help us to improve Ultimate-Guitar.com Take our survey!
×
ESTA ES LA CORRECION A UNA TABLATURA QUE ENCONTRE POR LA RED SALUDOS
DESDE TUXTLA GUTIERREZ CHIAPAS MEXICO
indigoguitar@


(intro)

E |------------------------9----------------8---------8-8-8-8---------1-
B |9999999-----------------7----------------7---------7-7-7-7---------4-
G |9999999-----------------8----------------8---------8-8-8-8---------3-
D |7777777----------7-7-7---------10--10------10-10--------------3-3-3--
A |8888888 4x ---------0---- 2x -7--7---7----7--7--7--------------------
E |7777777--------5--5------------------------------------------1-1-1---

E |-------10101010--------------------------------------------
B |-------10101010--------------------------------------------
G |-------10101010---------------------------------------------
D |-3-3-3------------------------------------------------------
A |------------------------------------------------------------
E |1-1-1-----------------------0-1-3-1-0-- 2x ------------------


A
Esta vez
       C
nuestro viaje
B        E
va a ser eterno
A            C
paraíso en la mente
    B      E      D C Bm
y el cuerpo en el infierno

E |---------9-----------------
B |---------7----------------
G |---------8----------------
D |--7-7-7------7-7-----------
A |-----0----------0--7-5-3-2-
E |-5-5--------5-5------------

A
Quiero ver
   C
tu sonrisa
B        E
de barrio bajo
A
quiero ver
      C
en tus ojos
B       E  D  C Bm
tu lado suburbano
C
Hoy

C
Soy de la generación
corto clavos con mi dios
A
irónico
babilónico
C
soy de la generación

nuestro tango

y nuestro amor
   A G F#      A
mirándonos

intro

A
Quiero estar
       C
en tus calles
     B   E
por un segundo
A           C
recordar carnavales
B          E  D C Bm E D C  Bm
soplar el humo que nubló tu mundo

C
Soy de la generación
corto clavos con mi dios
A
irónico
babilónico
C
soy de la generación
nuestro tango
y nuestro amor
A G F#
mirándonos

(solo)  C G

C
Soy de la generación
inmigrante el corazón
G
irónico
babilónico
C
soy de la generación
hoy me quedo en libertad
A     G   F#
Te digo adiós
A      G  F#
Me voy de vos
A      G  F#
Sin más que amor.
Suggest correction
Give kudos to tab author, rate the tab!
1 2 3 4 5
comments
print report bad tab
guest
You may want to rate the tab now too:
select rating
Wanna post a correction for this tab? Suggest correction