Oops, an error
Loading. Please wait.

Golpe De Suerte Tab

177 views 1 this week
no commentswrite comment
1 2 3 4 5
3 more votes to show rating
add to favorites
launch autoscroll
font size
0
reset
how to read this tab
guitar tuner
×
Best way to learn
"Golpe De Suerte"
Autoscroll
slow
fast
+/-
esc
set tempo
stop
Inmigrantes: Golpe de suerte


Intro:   X  4

E/-2-2-2-0-2-2-2-0-2-2-2-0-2-0-2-0--5-5-5-0-5-5-5-0-5-5-5-0-5-0-5-0
A/-----------------------------------------------------------------
D/-----------------------------------------------------------------
G/-----------------------------------------------------------------
B/-----------------------------------------------------------------
E/-----------------------------------------------------------------

Lo que sigue se hace  X  2

E/-----------------------------------------------------------------
A/-----------------------------------------------------------------
  D/------------------------------------------------------------------
G/-11-11-11-11-11-11-11-13-13-13-13-13-13-9-9-9-9-9-9--------------
B/-----------------------------------------------------------------
E/-----------------------------------------------------------------


E/-----------------------------------------------------------------
A/-----------------------------------------------------------------
D/-11-11-11---11---------------------------------------------------
G/----------9----9-------------------------------------------------
B/-----------------------------------------------------------------
E/-----------------------------------------------------------------


Versos

E/-2-2-2-0-2-2-2-0-2-2-2-0-2-2-2-0-5-5-5-0-5-5-5-0-5-5-5-0-5-5-5-0-

Sigue así

A/-4-4-4-0-4-4-4-0-4-4-4-0-4-4-4-0-7-7-7-0-7-7-7-0-7-7-7-0-7-------


Esto no es rock, esto no es pop
Hoy tengo tanto tango amor?
Quiero a las dos, tengo a las dos
Pero a las tres mejor me voy?

RE
No tengo ganas de despertarme hoy
FA#m
Desde mi cama se ve mucho mejor
X1        X2     X3   X4    C#m         MI
No tengo ganas de decaerme y perderme?
RE                          LA
La puerta ya cerrándose y el rito acelerándonos
RE                        C#m
El aire del ventilador nos da el insomnio y el calor
RE                Mí
Entonces voy por más?


Vos te pensas que es descontrol
Todo lo que hago es con amor
No me crees pero para vos
Estoy al borde de llover?

RE
No tengo ganas de despertarme hoy
FA#m
Desde mi cama se ve mucho mejor
X1        X2     X3    X4   C#m          MI
No tengo ganas de decaerme y perderme?


RE                          LA
La puerta ya cerrandose y el rito acelerándonos
RE                         C#m
El aire del ventilador nos da el insomnio y el calor     X 2
RE                 Mí
Y entonces voy por más?


A CAPELA:

La puerta ya cerrandose y el rito acelerándonos?


X1: E/---        X2: E/---       X3: E/---      X4: E/---
    A/---            A/---           A/---          A/---
    D/-1-            D/-2-           D/-4-          D/-7-
    G/-2-            G/-3-           G/-5-          G/-8-
    B/-1-            B/-2-           B/-4-          B/-7-
    E/-2-            E/-3-           E/-5-          E/-8-


PARA MIII ¡!!

ESTA BIEN TOCADA ASII ¡!

SUERTEEE ¡!!

1° 1° EgEoR ---- 
Suggest correction
Give kudos to tab author, rate the tab!
1 2 3 4 5
comments
print report bad tab
guest
You may want to rate the tab now too:
select rating
Wanna post a correction for this tab? Suggest correction