Oops, an error
Loading. Please wait.

Graffiti Bass

version 1
version 1

Whole song

Interactive

182 views 1 this week
no commentswrite comment
1 2 3 4 5
3 more votes to show rating
add to favorites
×
Save as Personal and add changes to this tab that will be seen only by you. Learn more ›
×
You can save this tab as Personal to edit and correct it or add notes. All changes will be seen only by you. Learn more »
save as personal
new!
launch autoscroll
font size
0
reset
guitar tuner
Autoscroll
slow
fast
+/-
esc
set tempo
stop
Bueno pss, esta cancion tiene una gran melodia, me encanta
aki les dejo las tabs


G|-----------------------------------------------------|
D|-----------------------------------------------------|
A|-4-4-4-44-2---------------------22-3-4-44-44-44-2----|
E|------------4-4-4-44-3-2-22-3-4----------------------|

VERSO


G|-----------------------------------------------------|
D|-----------------------------------------------------|
A|-4-4-4-44-2---------------------22-3-4-44-44-44-2----|
E|------------4-4-4-44-3-2-22-3-4----------------------|

BRIDGE


G|---------------------------------------------------------|
D|---------------------------------------------------------|
A|--5----------------4---------------2------2-0-------0----|
E|----------------------------------------------2-2-4---4--|
    No miro mas...


G|--------------------------6-----8-----9-----11-----------|
D|----4----6----7----9-------------------------------------|
A|----------------------4-----6-----7-----9----------------|
E|-2----4----5----7----------------------------------------|
   Salgo a pasear...


G|-------------------------|
D|-------------------------|
A|--2--2--2--2--2-4-6-7-9--|
E|-------------------------|
 y en un disparo...

CORO


G|----------------------------------------------------------------------|
D|----------------------------------------------------------------------|
A|---------------------------------7-7-7-7-7-7/14-14---------14-12-11-9-|
E|-2-2-2-2-2-2-2-2-5-5-5-5-5-5-5-5-------------------7-7-7-7------------|

G|----------------|
D|----------------|
A|----------------|
E|--2---4---5-----|
 Otra vez...

FINAL

G|-----------------------------------------------------|
D|----------------------------------------------9-6----|
A|--4--4--4--4------------0--0--2--2-3-4--4--4------97-|
E|-------------4--4--4--4------------------------------|

G|-----------------------------------------------------|
D|-----------------------------------------------------|
A|--4--4--4--4------------0--0--2--2-3-4--4--4--4-2-4/-|
E|-------------4--4--4--4------------------------------|


Eso es todo, escuchen bien la cancion para hallarle el ritmo
Suggest correction
Give kudos to tab author, rate the tab!
1 2 3 4 5
comments
print report bad tab
guest
Wanna post a correction for this tab? Suggest correction