Oops, an error
Loading. Please wait.

Graffiti Tab

version 1
version 1

Whole song

Interactive

189 views 3 this week
no commentswrite comment
1 2 3 4 5
3 more votes to show rating
add to favorites
launch autoscroll
font size
0
reset
how to read this tab
guitar tuner
×
Best way to learn
"Graffiti"
Autoscroll
slow
fast
+/-
esc
set tempo
stop
SIN DUDA ESTA ES LA VERSION MAS CERCANA A LA ORIGINAL AL MENOS EL INTRO
Y EL PUNTEO LO SON.
SALUDOS DESDE tuxtla gutierrez "CHIAPAS" MÉXICO
DUDAS ETC. A indigoguitar@


    Gm                                         B6
E||--4--x--4--x--4--x--|--4-4-4-4-4---------|--4--x--4--x--|
B||--5--x--5--x--5--x--|--5-5-5-5-5---------|--4--x--4--x--|
G||--6--x--6--x--6--x--|--6-6-6-6-6---------|--4--x--4--x--|
D||--6--x--6--x--6--x--|--6-6-6-6-6---------|--6--x--6--x--|
A||--------------------|--------------------|--------------|
E||--------------------|--------------------|--------------|


   D#sus4/5+
E||--7--7--7--7--7--|
B||--4--4--4--4--4--|
G||--4--4--4--4--4--|
D||--6--6--6--6--6--|
A||-----------------|
E||-----------------|


  A6             D#sus4/5               Gm            E6
--2--x--2--x--|--7--7--7--7--7--|--4--x--4--x--|--9--9--9--9--9--||
--2--x--2--x--|--4--4--4--4--4--|--5--x--5--x--|--9--9--9--9--9--||
--2--x--2--x--|--4--4--4--4--4--|--6--x--6--x--|--9--9--9--9--9--||
--4--x--4--x--|--6--6--6--6--6--|--6--x--6--x--|--9--9--9--9--9--||
--------------|-----------------|--------------|-----------------||
--------------|-----------------|--------------|-----------------||

Gm
Si hay infierno para mi
B6                  D#sus4/5 
y hay infierno para vos
A6            D#sus4/5          Gm           E6
que nada nos separe por favor

Gm
Todo el tiempo que perdí
B6                 D#sus4/5 
no lo voy a repetir
A6             D#sus4/5          Gm           E6
no quiero ser igual a lo que fui

*(rasgueo solo uno por cada nota)
F#m         C#m
No miro mas televisión
       D#sus4/5        A6
No hay nada para ver

AQUI VA NORMAL ojo en la original solo se toca f#m

F#m            C#m
Salgo a pasear por la ciudad
   B6
Y en un disparo una canción
   D#sus4/5+
Se hace graffiti en mi

F#m               A
   Dadada dira da da
               E
Dadada dira da da
                        B
Un graffiti en mi interior
                      F#m
Me dice que mañana es hoy

F#m               A
Dadada dira da da
               E
Dadada dira da da
                  B
Me siento mucho mejor
                       F#m
Sabiendo que mañana es hoy
      A
Otra vez

*punteo

---------------|-----------|-----------|------------||
-----9---------|--9--------|--7--5--7--|--9---------||
--------9------|-----8-----|-----------|-----9------||
-----------11--|--------9--|-----------|--------11--||
---------------|-----------|-----------|------------||
---------------|-----------|-----------|------------||


 Gm
Si hay un cielo para mi
  B6                  D#sus4/5 
y hay un cielo para vos
 A6             D#sus4/5        Gm           E6
que nada nos separe por favor


Gm
Todo el tiempo que perdi
B6                  D#sus4/5 
no lo voy a repetir
  A6            D#sus4/5         Gm           E6
no quiero ser igual a lo que fui

F#m         C#m
NO miro más televisión
        D#sus4/5          A6
no hay nada para ver

F#m            C#m
salgo a pasear por la ciudad
  B6
y en un disparo una canción
   D#sus4/5+
se hace graffiti en mi


F#m               A
   Dadada dira da da
               E
Dadada dira da da
                        B
Un graffiti en mi interior
                      F#m
Me dice que mañana es hoy

               A
Dadada dira da da
               E
Dadada dira da da
                  B
Me siento mucho mejor
                       F#m
Sabiendo que mañana es hoy

               A
Dadada dira da da
               E
Dadada dira da da
                        B
Un graffiti en mi interior
                      F#m
Me dice que mañana es hoy

               A
Dadada dira da da
               E
Dadada dira da da
                  B
Me siento mucho mejor
                       F#m
Sabiendo que mañana es hoy
      A
Otra vez


4 VECES EL PUNTEO ACOMPAÑADO CON OTRA GUITARRA HACIENDO EL INTRO


---------------|-----------|-----------|------------||
-----9---------|--9--------|--7--5--7--|--9---------||
--------9------|-----8-----|-----------|-----9------||
-----------11--|--------9--|-----------|--------11--||*4
---------------|-----------|-----------|------------||
---------------|-----------|-----------|------------||
Suggest correction
Give kudos to tab author, rate the tab!
1 2 3 4 5
comments
print report bad tab
guest
You may want to rate the tab now too:
select rating
Wanna post a correction for this tab? Suggest correction