Oops, an error
Loading. Please wait.

Preciados Tab

20 views 1 this week
no commentswrite comment
1 2 3 4 5
3 more votes to show rating
add to favorites
launch autoscroll
font size
0
reset
how to read this tab
guitar tuner
Autoscroll
slow
fast
+/-
esc
set tempo
stop
Help us to improve Ultimate-Guitar.com Take our survey!
×
### Besos para mi Ranita Hermosa ####
### Que la amo con todo mi corazón ###
### Saludos a todos desde Cd. Juárez ###


Este acorde no lo encontre en el Glosario,
es A7 pero pisando la primer cuerda en el primer traste
y lo demas como A7

A7

e/--|-0-|---|---|---|----
B/--|---|-0-|---|---|----
G/-0|---|---|---|---|----
D/--|---|-0-|---|---|----
A/-0|---|---|---|---|----
E/-X|---|---|---|---|----
      1   2   3

A#add9 version 3

e/--|-0-|---|---|---|----
B/--|-0-|---|---|---|----
G/--|---|---|-0-|---|----
D/--|---|---|-0-|---|----
A/--|-0-|---|---|---|----
E/-X|---|---|---|---|----
      1   2   3


Intro:
   C    Em  Am   Dm         G
e/-8---8-7---5-----------------------------
B/---8------------8-6-5-3------------------
G/------------------------5-0-0-2-4-0------
D/------------------------------------3-0--
A/-----------------------------------------
E/-----------------------------------------


C      Em  Am
Te anestesias
      Dm
te empiezas
        G
a envolver

C      Em Am
Te ruborizas
     Dm          G    Gm
te duermes otra veee-eez


Dm        A7
Desespero por saber
 Dm              A#add9
si algo nos va a separar
 F
envueltos en un papel
     C
sacrifico ropas

y a las seis
      Gm
haces otro intento

por perder


    A#add9   C
Todo lo especial
    Dm
en vos
A#add9 C    G
es tan esencial


C      Em  Am
Me reconoces
      Dm
me inventás
        G    Gm
sin quereeee-er


Dm        A7
Desespero por saber
 Dm              A#add9
si algo nos va a separar
 F
envueltos en un papel
     C
sacrifico ropas

y a las seis
       Gm
haces otro intento

por perder


    A#add9   C
Todo lo especial
   Dm
en vos
A#add9 C    Dm
es tan esencial
A#add9   C   Dm
sos tan demencial
A#add9    C   F
que me haces reir.

   F             Am        Dm      Gm

e/-------------------------------------------------------
B/-----1-3-------------1-3-------------------------------
G/-1-2-----1-2-----1-2-----1-2-----0-2-0-------0-2-0-----
D/-------------2-3-------------2-3-------3-0-3-------3-0-
A/-------------------------------------------------------
E/-------------------------------------------------------

     C

e/--------------------------------------
B/---1-2-3-4-5-4-3-2-1-2-3-4-5-4-1------
G/--------------------------------------
D/--------------------------------------
A/--------------------------------------
E/--------------------------------------


Dm        A7
Desespero por saber
 Dm              A#add9
si algo nos va a separar
 F
envueltos en un papel
     C
sacrifico ropas

y a las seis
       Gm
haces otro intento

por perder


    A#add9   C
Todo lo especial
   Dm
en vos
A#add9 C    Dm
es tan esencial
A#add9   C   Dm
sos tan demencial
A#add9    C   F
que me haces reir.

C Em Am Dm G
Suggest correction
Give kudos to tab author, rate the tab!
1 2 3 4 5
comments
print report bad tab
guest
You may want to rate the tab now too:
select rating
Wanna post a correction for this tab? Suggest correction