Oops, an error
Loading. Please wait.

Bad Boys Bass Tab

15,772 views 12 this week
2 commentsread comments
1 2 3 4 5
x 5
add to favorites
launch autoscroll
font size
0
reset
guitar tuner
Autoscroll
slow
fast
+/-
esc
set tempo
stop
Help us to improve Ultimate-Guitar.com Take our survey!
×
Difficulty
novice
G---------------555555555--------------------------|
D----7-7--75-57-----------777----------------------|
A-----7-----7--------------------------------------|
E--------------------------------------------------|

THATS THE WHOLE SONG JUST REPEAT THAT OVER AND OVER AGAIN!

IT IS A COOL BASS LINE FUN TO PLAY FOR YOUR FRIENDS THEY WILL THINK YOU ARE AMAZING!
Suggest correction
comments
print report bad tab
2 comments total.
0 reply
dshodaw 225 Jan 03, 2014 02:23 PM

G------------|----------------|
D-6----64-46-|----------------|
A--6-----6---|-22222222-------|
E------------|-----------4--4-|

Figure out the timing, but it should be in the right key.

0 reply
dshodaw 225 Jan 03, 2014 02:24 PM

G------------|----------------|
D-6----64-46-|----------------|
A--6-----6---|-22222222-------|
E------------|-----------4--4-|

Figure out the timing, but it should be in the right key.

guest
You may want to rate the tab now too:
select rating
Wanna post a correction for this tab? Suggest correction