Oops, an error
Loading. Please wait.

Bad Boys Tab

version 1
version 1

Whole song

20,546 views 15 this week
no commentswrite comment
1 2 3 4 5
x 4
add to favorites
launch autoscroll
font size
0
reset
how to read this tab
guitar tuner
Autoscroll
slow
fast
+/-
esc
set tempo
stop
Help us to improve Ultimate-Guitar.com Take our survey!
×
Author
h = hammer on
p = pull off

Other bass tabs for this song shows that the notes just repeat continuously,
but when you actually sit down and listen to the bass in the background,
you'll notice that the notes change up unexpectedly. This tab is quite
accurate so I hope everyone likes it. Try playing it while listening to the
song.

Intro
G:--------2-0---0-2---------------------|
D:-----2------2-------------------------|
A:---0------------------3333333---------|
E:--------------------3---------3h4h5-5-|

G:--------2-0---0-2---------------------|
D:-----2------2-------------------------|
A:---0------------------3333333---------|
E:--------------------3---------3h4h5-5-|

G:--------2-0---0-2---------------------|
D:-----2------2-------------------------|
A:---0------------------3333333---------|
E:--------------------3---------3h4h5-5-|

Chorus 1
G:--------------------------------------|
D:--------------------------------------|
A:----------------------3333333---------|
E:--------------------3---------3h4h5-5-|

G:--------------------------------------|
D:--------------------------------------|
A:----------------------------3---------|
E:------------------------------3h4h5-5-|

Chorus 2
G:--------2-0---0-2---------------------|
D:-----2------2-------------------------|
A:---0------------------3333333---------|
E:--------------------3---------3h4h5-5-|

G:--------2-0---0-2---------------------|
D:-----2------2-------------------------|
A:---0------------------333-------------|
E:--------------------3-----------------|

Chorus 3
G:--------2-0---0-2---------------------|
D:-----2------2-------------------------|
A:---0------------------3333333---------|
E:--------------------3---------3h4h5-5-|

G:--------2-0---0-2---------------------|
D:-----2------2-------------------------|
A:---0------------------3333333---------|
E:--------------------3---------3h4h5-5-|

G:--------2-0---0-2---------------------|
D:-----2------2-------------------------|
A:---0------------------3333333---------|
E:--------------------3---------3h4h5-5-|

G:--------------------------------------|
D:--------------------------------------|
A:---000000000000-0-----3333333---------|
E:--------------------3---------3h4h5-5-|

Chorus 4
G:--------2-0---0-2---------------------|
D:-----2------2-------------------------|
A:---0------------------3333333---------|
E:--------------------3---------3h4h5-5-|

G:--------2-0---0-2---------------------|
D:-----2------2-------------------------|
A:---0------------------3333333---------|
E:--------------------3---------3h4h5-5-|

G:--------2-0---0-2---------------------|
D:-----2------2-------------------------|
A:---0------------------3333333---------|
E:--------------------3---------3h4h5-5-|

G:----------2p0-0h2---------------------|
D:-----2------h2------------------------|
A:---0------------------3333333---------|
E:--------------------3---------3h4h5-5-|

G:--------2-0---0-2---------------------|
D:-----2------2-------------------------|
A:---0------------------3333333---------|
E:--------------------3---------3h4h5-5-|

G:--------2-0---0-2---------------------|
D:-----2------2-------------------------|
A:---0------------------3333333---------|
E:--------------------3---------3h4h5-5-|

Chorus 5
G:--------2-0---0-2---------------------|
D:-----2------2-------------------------|
A:---0------------------3333333---------|
E:--------------------3---------3h4h5-5-|

G:--------2-0---0-2---------------------|
D:-----2------2-------------------------|
A:---0------------------3333333---------|
E:--------------------3---------3h4h5-5-|

G:--------2-0---0-2---------------------|
D:-----2------2-------------------------|
A:---0------------------3333333---------|
E:--------------------3---------3h4h5-5-|

G:--------------------------------------|
D:--------------------------------------|
A:---000-0-0000-0-------3333333---------|
E:--------------------3---------3h4h5-5-|

Flute Solo
G:--------2-0---0-2---------------------|
D:-----2------2-------------------------|
A:---0------------------3333333---------|
E:--------------------3---------3h4h5-5-|

G:--------------------------------------|
D:--------------------------------------|
A:---0--00--00--00------3333333---------|
E:--------------------3---------3h4h5-5-|

G:--------2-0---0-2---------------------|
D:-----2------2-------------------------|
A:---0------------------3333333---------|
E:--------------------3---------3h4h5-5-|

G:--------2-0---0-2---------------------|
D:-----2------2-------------------------|
A:---0------------------3333333---------|
E:--------------------3---------3h4h5-5-|

Chorus 6
G:--------------------------------------|
D:--------------------------------------|
A:---0------------------3333333---------|
E:--------------------3---------3h4h5-5-|

G:--------------------------------------|
D:--------------------------------------|
A:----------------------3333333---------|
E:--------------------3---------3h4h5-5-|

G:--------2-0---0-2---------------------|
D:-----2------2-------------------------|
A:---0----------------------------------|
E:--------------------------------------|

G:--------2-0---0-2---------------------|
D:-----2------2-------------------------|
A:---0----------------------------------|
E:--------------------------------------|

Chorus 7
G:--------2-0---0-2---------------------|
D:-----2------2-------------------------|
A:---0------------------3333333---------|
E:--------------------3---------3h4h5-5-|

G:--------2-0---0-2---------------------|
D:-----2------2-------------------------|
A:---0------------------3333333---------|
E:--------------------3---------3h4h5-5-|

G:--------2-0---0-2---------------------|
D:-----2------2-------------------------|
A:---0------------------3333333---------|
E:--------------------3---------3h4h5-5-|

G:--------2-0---0-2---------------------|
D:-----2------2-------------------------|
A:---0------------------3333333---------|
E:--------------------3---------3h4h5-5-|

G:--------2-0---0-2---------------------|
D:------------2-------------------------|
A:--------------------------------------|
E:--------------------------------------|

G:--------2-0---0-2---------------------|
D:-----2------2-------------------------|
A:---0----------------------------------|
E:--------------------------------------|

G:--------2-0---0-2---------------------|
D:-----2------2-------------------------|
A:---0------------------3333333---------|
E:--------------------3---------3h4h5-5-|

G:--------2-0---0-2---------------------|
D:-----2------2-------------------------|
A:---0------------------3333333---------|
E:--------------------3---------3h4h5-5-|

Outro
G:--------2-0---0-2---------------------|
D:-----2------2-------------------------|
A:---0------------------3333333---------|
E:--------------------3---------3h4h5-5-|

G:--------2-0---0-2---------------------|
D:-----2------2-------------------------|
A:---0------------------3333333---------|
E:--------------------3---------3h4h5-5-|
Suggest correction
comments
print report bad tab
guest
You may want to rate the tab now too:
select rating
Wanna post a correction for this tab? Suggest correction