Oops, an error
Loading. Please wait.

Sweat bass

version 1
version 1

Whole song

Interactive

6,081 views 15 this week
2 commentsread comments
1 2 3 4 5
x 3
add to favorites
×
Save as Personal and add changes to this tab that will be seen only by you. Learn more ›
×
You can save this tab as Personal to edit and correct it or add notes. All changes will be seen only by you. Learn more »
launch autoscroll
font size
0
reset
guitar tuner
edit
Autoscroll
slow
fast
+/-
esc
set tempo
stop
Author
Difficulty
My band wanted to cover this so I had a pop at the bass myself. Easy to get to grips 
with and sounds good to me! please rate this tab!


Main Riff (plays for almost all of the song)

G|-----------------------------|
D|---555-----777---------------|
A|-3--------------5-555-------5|
E|---------5-------------5-5-7-|

Breakdown

G|-----------------------------|
D|-----------------------------|
A|-3-3-3----------5-5-5-------5|
E|---------5-5-5---------5-5-7-|

G|-----------------------------|
D|-----------------------------|
A|-3--------------5-----------5|
E|---------5-------------5-5-7-|

            
            
Suggest correction
Creating personal tab
Creating personal tab
You can edit any tab online and save it as your Personal.

You can edit, replace or remove any tab part or add personal notes – all changes will be seen only by you.

Personal tabs can be accessed anytime from any device, even offline.
Learn more »
Give kudos to tab author, rate the tab!
1 2 3 4 5
comments
print report bad tab
2 comments total.
0 reply
graham.paton.5 10 Sep 26, 2013 02:41 AM

great tab thanks!! can you please tell me where the breakdown is please?

0 reply
KennethVer 10 Oct 08, 2013 04:51 AM

I think the ending to the riff is more like:
G|-------|
D|-------|
A|------5|
E|5-5678-|

So that would be:
G|------------------------------|
D|---555-----777----------------|
A|-3--------------5-555--------5|
E|---------5-------------5-5678-|

I think it counts for the other riffs aswell.

guest
You may want to rate the tab now too:
select rating
Wanna post a correction for this tab? Suggest correction