Oops, an error
Loading. Please wait.

Baby Girl Tab

version 2
version 2

Whole song

7,827 views 3 this week
no commentswrite comment
1 2 3 4 5
2 more votes to show rating
add to favorites
launch autoscroll
font size
0
reset
how to read this tab
guitar tuner
Autoscroll
slow
fast
+/-
esc
set tempo
stop
Help us to improve Ultimate-Guitar.com Take our survey!
×
Author
Difficulty
novice
BABY GIRL
BY
INNERVOICE
****************************************************************************

Intro/CHorus

      C                            G

-------3--------------------|-------3---------------------|
-----1---1------------------|-----1---1-------------------|
---0-------0----------------|---0-------0-----------------|
-------------2--------------|-------------0---------------|
-3--------------------------|-2---------------------------|
----------------------------|-----------------------------|


     Am                             F


-------3---------------------|---------3--------------------|
-----1---1-------------------|-------1---1------------------|
---2-------2-----------------|-----2-------2----------------|
-------------2---------------|---------------0--------------|
-0---------------------------|--3---------------------------|
-----------------------------|------------------------------|

Refrain or Prechorus (Just Listen To The Song Pretty Much same Progression)

F, G, C, Am

F                  G          C and Am Just do the same as the Verse Chords
1------------|--3----------|
1------------|--3----------|
2------------|--0----------|
3------------|--0----------|
3------------|--2----------|
1------------|--3----------|

******************************ThAT's ALL just Listen To The SOng Its Easy To Learn If U 
Listen to It*************************************
Suggest correction
Give kudos to tab author, rate the tab!
1 2 3 4 5
comments
print report bad tab
guest
You may want to rate the tab now too:
select rating
Wanna post a correction for this tab? Suggest correction