Oops, an error
Loading. Please wait.

Dragon Age Origins - Lelianas Song Chords

100 views 48 this week
no commentswrite comment
1 2 3 4 5
3 more votes to show rating
add to favorites
launch autoscroll
font size
0
reset
transpose
0
reset
simplify chords
display chords
guitar tuner
Autoscroll
slow
fast
+/-
esc
set tempo
stop
Help us to improve Ultimate-Guitar.com Take our survey!
×
Author
Difficulty
novice
[Intro]

e|--3-2---0-------|--3---0---------|--3-2---0-------|
B|------3---0-3---|----3---0-3-0---|------3---0---0-| 
G|--------------2-|--------------2-|------------2---|
D|(2)-------------|(2)-------------|(2)-------------|
A|----------------|----------------|----------------|
E|0---------------|0---------------|0---------------|

[Vocalise]
Em     Bm     D      A
Em     Bm     F#m    Am

e|--3-2---0-------|
B|------3---0---0-| Em
G|------------2---| x 2
D|(2)-------------|
A|----------------|
E|0---------------|

[Verse]
Em           D
Haharen na melana sahlin
Am       Em
Emma ir abelas
Hm7               F#m
Souver'inan isala hamin
C        D       Em
  Uhenan him dor'felas
C        D       Em
  In uthenera na revas

[Vocalise]
Em     Bm     D      A
Em     Bm     F#m    Am

[Chorus]
B          G
Vir sulahn'nehn
Dm     Am
Vir dirthera
C             Em
Vir samahl la numin
Bm          Am
Vir lath sa'vunin

B          G
Vir sulahn'nehn
Dm     Am
Vir dirthera
C             Em
Vir samahl la numin
Bm          Am
Vir lath sa'vunin

e|--3-2---0-------|
B|------3---0---0-| Em
G|------------2---| x 4
D|(2)-------------|
A|----------------|
E|0---------------|



************************************

| (n)  Ghost note

************************************
Suggest correction
Give kudos to tab author, rate the tab!
1 2 3 4 5
comments
print report bad tab
guest
You may want to rate the tab now too:
select rating
Wanna post a correction for this tab? Suggest correction