Oops, an error
Loading. Please wait.

Dirtball Tab

302 views 3 this week
1 commentread comment
1 2 3 4 5
1 last vote to show rating
add to favorites
launch autoscroll
font size
0
reset
how to read this tab
guitar tuner
Autoscroll
slow
fast
+/-
esc
set tempo
stop
Author: KC

Chorus
e-----------------------------------
B-----------------------------------
G-----------------------------------
D--6--6-5--6-6-5--6-6-5--6--9-8-----
A-6--6-5--6-6-5--6-6-5--6--9-8-----
E-4—-4/3--4—4/3--4-4/3--4--7-6-----

And every other one it does it w/ 2 (799xxx) instead of the (688xxx)

Post Chorus 
e-------------------------------
B-------------------------------
G-------------------------------
D-6--6-4--9-8-6--6--6-4--9-8---- X2
A-4—-4/2--7-6-4—-4--4/2--7-6----
E-------------------------------

And those are the riffs.  At the end, there’s a part where you play the chorus 
riff but you hit the notes more times than you do before.  

If you have any questions, comments, corrections, or anything like that e-mail me
at Kchev20@hotmail.com
Suggest correction
Give kudos to tab author, rate the tab!
1 2 3 4 5
comments
print report bad tab
1 comment total.
0 reply
KChev20 10 Jan 10, 2003 07:00 PM

e----------------------------------
B----------------------------------
G----------------------------------
D-6--6-5--6-6-5--6-6-5--6--9-8-----
A-6--6-5--6-6-5--6-6-5--6--9-8-----
E-4?-4/3--4?4/3--4-4/3--4--7-6-----

guest
Wanna post a correction for this tab? Suggest correction