Oops, an error
Loading. Please wait.

The Bone tab

version 2
version 2

Whole song

236 views 1 this week
no commentswrite comment
1 2 3 4 5
2 more votes to show rating
add to favorites
×
Save as Personal and add changes to this tab that will be seen only by you. Learn more ›
×
You can save this tab as Personal to edit and correct it or add notes. All changes will be seen only by you. Learn more »
launch autoscroll
font size
0
reset
how to read this tab
guitar tuner
edit
Autoscroll
slow
fast
+/-
esc
set tempo
stop
Author
Difficulty
Intro:
e|-----------------------------------------------------|
B|-----------------------------------------------------|
G|-17--15--12--9---------------------------------------|
D|-----------------------------------------------------|
A|-----------------------------------------------------|
E|-----------------------------------------------------|
                Weird effect through song



Verse 1:
e|-----------------------------------------------------|
B|-----------------------------------------------------|
G|-----------------------------------------------------|
D|-----------------------------------------------------|
A|-----------------------------------------------------|
E|-0-0-3-0--0-0-3-0--0-0-3-0--5-3-0-3------------------|
                Repeat this 3x 

e|-----------------------------------------------------|
B|-----------------------------------------------------|
G|--17--15--12--9--------------------------------------|
D|-----------------------------------------------------|
A|-----------------------------------------------------|
E|-----------------------------------------------------|




e|-----------------------------------------------------|
B|-----------------------------------------------------|
G|-----------------------------------------------------|
D|-----------------------------------------------------|
A|-----------------------------------------------------|
E|-0-0-3-0--0-0-3-0--0-0-3-0--5-3-0-3------------------|
                Repeat this 3x
Guitar 2
e|-----------------------------------------------------|
B|-----------------------------------------------------|
G|-12-9---12-9---12-9---12-9--12-9---------------------|
D|-----------------------------------------------------|
A|-----------------------------------------------------|
E|-----------------------------------------------------|


e|-----------------------------------------------------|
B|-----------------------------------------------------|
G|--17--15--12--9--------------------------------------|
D|-----------------------------------------------------|
A|-----------------------------------------------------|
E|-----------------------------------------------------|




e|-----------------------------------------------------|
B|-----------------------------------------------------|
G|-----------------------------------------------------|
D|-----------------------------------------------------|
A|-----------------------------------------------------|
E|-0-0-3-0--0-0-3-0--0-0-3-0--5-3-0-3------------------|
                Repeat this 3x 

e|-----------------------------------------------------|
B|--17w-----bend(full step)----------------------------|
G|-----------------------------------------------------|
D|-----------------------------------------------------|
A|-----------------------------------------------------|
E|-----------------------------------------------------|
whammy bar up and down 




e|-----------------------------------------------------|
B|-----------------------------------------------------|
G|-----------------------------------------------------|
D|-----------------------------------------------------|
A|-----------------------------------------------------|
E|-0-0-3-0--0-0-3-0--0-0-3-0--5-3-0-3------------------|
                Repeat this 3x 

e|-----------------------------------------------------|
B|-----------------------------------------------------|
G|--------------------------------------------9-12-----|
D|-----------------------------------------------------|
A|-----------------------------------------------------|
E|-----------------------------------------------------|
(Last measure be for the chorus he hits the end of the string behind the nut of the b string)

Chorus 1:
e|-----------------------------------------------------|
B|-----------------------------------------------------|
G|-----------------------------------------------------|
D|-----------------------------------------------------|
A|-13-13-13-13-12-10--7-9-7----------------------------|
E|-----------------------------------------------------|
             Repeat 3 times     

e|-----------------------------------------------------|
B|-----------------------------------------------------|
G|-17-15-12-9------------------------------------------|
D|-----------------------------------------------------|
A|-----------------------------------------------------|
E|-----------------------------------------------------|


Verse 2:
e|-----------------------------------------------------|
B|-----------------------------------------------------|
G|-----------------------------------------------------|
D|-----------------------------------------------------|
A|-----------------------------------------------------|
E|-0-0-3-0--0-0-3-0--0-0-3-0--5-3-0-3------------------|
                Repeat this 3x 

e|-----------------------------------------------------|
B|-17-15-12-5------------------------------------------|
G|-----------------------------------------------------|
D|-----------------------------------------------------|
A|-----------------------------------------------------|
E|-----------------------------------------------------|




e|-----------------------------------------------------|
B|-----------------------------------------------------|
G|-----------------------------------------------------|Repeat 3x
D|-----------------------------------------------------|
A|-----------------------------------------------------|
E|-0-0-3-0--0-0-3-0--0-0-3-0--5-3-0-3------------------|
               
Guitar 2
e|-----------------------------------------------------|
B|-----------------------------------------------------|
G|-12-9---12-9---12-9---12-9--12-9---------------------|
D|-----------------------------------------------------|
A|-----------------------------------------------------|
E|-----------------------------------------------------|


e|-----------------------------------------------------|
B|-----------------------------------------------------|
G|-17W-15W-12W-9W--------------------------------------|
D|-----------------------------------------------------|
A|-----------------------------------------------------|
E|-----------------------------------------------------|
wammy bar up and down really fast




e|-----------------------------------------------------|
B|-----------------------------------------------------|
G|-----------------------------------------------------|Repeat 3x
D|-----------------------------------------------------|
A|-----------------------------------------------------|
E|-0-0-3-0--0-0-3-0--0-0-3-0--5-3-0-3------------------|

Gutiar in background frist time.
e|-----------------------------------------------------|
B|-----------------------------------------------------|
G|-----------------------------------------------------|
D|------stop and start pick slide----------------------|
A|-----------------------------------------|
E|-----------------------------------------------------|




e|-----------------------------------------------------|
B|-17w~~~~~~~~~~~~~~~~~~~~~~~~~~~~~~-------------------|
G|-------------------------------------------9--12-----|
D|-----------------------------------------------------|
A|-----------------------------------------------------|
E|-----------------------------------------------------|




e|-----------------------------------------------------|
B|-----------------------------------------------------|
G|-----------------------------------------------------|Repeat 3x
D|-----------------------------------------------------|
A|-----------------------------------------------------|
E|-0-0-3-0--0-0-3-0--0-0-3-0--5-3-0-3------------------|


e|-23-24-23-20-23-20-19-20-19-17-19-17-15-17-14-15-14--|
B|-----------------------------------------------------|
G|-----------------------------------------------------|
D|-----------------------------------------------------|
A|-----------------------------------------------------|
E|-----------------------------------------------------|

 Chorus 2:
e|-----------------------------------------------------|
B|-----------------------------------------------------|
G|-----------------------------------------------------|
D|-----------------------------------------------------|
A|-13-13-13-13-12-10--7-9-7----------------------------|
E|-----------------------------------------------------|
             Repeat 3 times     


e|-----------------------------------------------------|
B|-17w-15w-12w-----------------------------------------|
G|-----------------------------------------------------|
D|-----------------------------------------------------|
A|-----------------------------------------------------|
E|-----------------------------------------------------|
whammy bar slow down

Verse 3:
e|-----------------------------------------------------|
B|-----------------------------------------------------|
G|-----------------------------------------------------|Repeat 3x
D|-----------------------------------------------------|
A|-----------------------------------------------------|
E|-0-0-3-0--0-0-3-0--0-0-3-0--5-3-0-3------------------|


e|-19-21-23-24-24b-24-21-23-24b-24-21-23-24--21--------|
B|-----------------------------------------------------|
G|-----------------------------------------------------|
D|-----------------------------------------------------|
A|-----------------------------------------------------|
E|-----------------------------------------------------|




Free time :)

e|-----------------------------------------------------|
B|-----------------------------------------------------|
G|-----------------------------------------------------|Repeat 3x
D|-----------------------------------------------------|
A|-----------------------------------------------------|
E|-----------------------------------------------------|

e|-19--19--19-19---------------------------------------|
B|-----------------------------------------------------|
G|----------------9-12---------------------------------|
D|-----------------------------------------------------|
A|-----------------------------------------------------|
E|-----------------------------------------------------|




e|-----------------------------------------------------|
B|-----------------------------------------------------|
G|-----------------------------------------------------|Repeat 3x
D|-----------------------------------------------------|
A|-----------------------------------------------------|
E|-0-0-3-0--0-0-3-0--0-0-3-0--5-3-0-3------------------|

e|-----------------------------------------------------|
B|-----------------------------------------------------|
G|-17w-15w-12w-9w--------------------------------------|
D|-----------------------------------------------------|
A|-----------------------------------------------------|
E|-----------------------------------------------------|




e|-----------------------------------------------------|
B|-----------------------------------------------------|
G|-----------------------------------------------------|Repeat 3x
D|-----------------------------------------------------|
A|-----------------------------------------------------|
E|-0-0-3-0--0-0-3-0--0-0-3-0--5-3-0-3------------------|


e|-----------------------------------------------------|
B|-----------------------------------------------------|
G|-----------------------------------------------------|
D|-----------------------------------------------------|
A|-0w-12-0w-12-0w-12-0w-12-----------------------------|
E|-----------------------------------------------------|


Chorus 3:
e|-----------------------------------------------------|
B|-----------------------------------------------------|
G|-----------------------------------------------------|
D|-----------------------------------------------------|
A|-13-13-13-13-12-10--7-9-7----------------------------|
E|-----------------------------------------------------|
             Repeat 3 times     

outro
e|-----------------------------------------------------|
B|-15w-------------------------------------------------|
G|-----------------------------------------------------|
D|-----------------------------------------------------|
A|-----------------------------------------------------|
E|-------------12////////////////////////////////////--|
 Slide Down will slowly pushing down the wammy bar

[Girl scout] 
Hello, mister!
I hope you weren't sleeping?
Would you like to buy some girl scout cookies

[Deep-voiced man] 
Oh. Cookies, huh?
That sounds really good right about now.
What kind do you got?

[Girl scout] 
Oh my gosh! You sound really scary!
Why do you sound like that?

[Deep-voiced man] 
What do you mean, sweetie?
Do you have any Samoas
Or just them Thin Mints?

[Girl scout] 
M-m-maybe I should go?
You sound really weird and I'm scared!

[Deep-voiced man] 
Wait! What about them Tag-Alongs?
Can I at least get a box of them bad boys?
Shit. What the fuck you wake me
up for, then, bitch? Man!

LOL much clown love
Suggest correction
Creating personal tab
Creating personal tab
You can edit any tab online and save it as your Personal.

You can edit, replace or remove any tab part or add personal notes – all changes will be seen only by you.

Personal tabs can be accessed anytime from any device, even offline.
Learn more »
Give kudos to tab author, rate the tab!
1 2 3 4 5
comments
print report bad tab
guest
You may want to rate the tab now too:
select rating
Wanna post a correction for this tab? Suggest correction