Oops, an error
Loading. Please wait.

La Imprevista Bass Tab

3 views 1 this week
no commentswrite comment
1 2 3 4 5
3 more votes to show rating
add to favorites
launch autoscroll
font size
0
reset
guitar tuner
Autoscroll
slow
fast
+/-
esc
set tempo
stop
Help us to improve Ultimate-Guitar.com Take our survey!
×
-----------------------------------------------------------------------------------------------------------------
Colaboracion de Cesar B. ( Perú )
cesarbenlloch2@
-----------------------------------------------------------------------------------------------------------------


Bueno , aquie esta consagrada y pohera cancion de
este gran grupo..

Primero va en Distortion

Entra el bajo  :

E----------------------------------------------------------------
A----------------------------------------------------------------	      Asi varias veces..... terminas en 4/3.
D----------------------------------------------------------------
G---0--- -0-0--3--3--5--3--0--------------------------------


Despues del juego de las 2 guitarras...


Despues hay un momento mudo 
el bajo entra asi:
		
E-------------------------------------------------------------------------
A------------------------0-----------------------------------------------		 varias veces.
D---------------2--0-------2-------------------------------------------
G---0----0-0-- ---------------------------------------------------------


Luegos vuelves a lo anterior....pero mas rapido.
					
					Comenta , sugiere de grupos asi. ..enviame acordes
					a : cesarbenlloch2@	
	
--------------------------------------------------------------------------------------------------------------------------------------------------------------
Suggest correction
Give kudos to tab author, rate the tab!
1 2 3 4 5
comments
print report bad tab
guest
You may want to rate the tab now too:
select rating
Wanna post a correction for this tab? Suggest correction