Oops, an error
Loading. Please wait.

Dragon Hunter tab

1,120 views 6 this week
no commentswrite comment
1 2 3 4 5
3 more votes to show rating
add to favorites
×
Save as Personal and add changes to this tab that will be seen only by you. Learn more ›
×
You can save this tab as Personal to edit and correct it or add notes. All changes will be seen only by you. Learn more »
launch autoscroll
font size
0
reset
how to read this tab
guitar tuner
edit
Autoscroll
slow
fast
+/-
esc
set tempo
stop
Intro: (Mid-distortion)

Gtr I
|----------------------------------|----------------------------------|
|----------------------------------|----------------------------------|
|--7-7-7-7-7-7-7-7-7-7-7-7-7-7-7-7-|----------------------------------|
|--7-7-7-7-7-7-7-7-7-7-7-7-7-7-7-7-|-7-7-7-7-7-7-7-7-7-7-7-7-7-7-7-7--|
|--5-5-5-5-5-5-5-5-5-5-5-5-5-5-5-5-|-7-7-7-7-7-7-7-7-7-7-7-7-7-7-7-7--|
|----------------------------------|-7-7-7-7-7-7-7-7-7-7-7-7-7-7-7-7--|

|----------------------------------|------------------------------|
|----------------------------------|------------------------------|
|----------------------------------|------------------------------|
|--8-8-8-8-8-8-8-8-8-8-8-8-8-8-8-8-|-3-3-3-3-3-3-3-3-3-3-3-3-2-2--|
|--8-8-8-8-8-8-8-8-8-8-8-8-8-8-8-8-|-3-3-3-3-3-3-3-3-3-3-3-3-2-2--|
|--8-8-8-8-8-8-8-8-8-8-8-8-8-8-8-8-|-3-3-3-3-3-3-3-3-3-3-3-3-2-2--|

|----------------------------------|----------------------------------|
|----------------------------------|----------------------------------|
|--7-7-7-7-7-7-7-7-7-7-7-7-7-7-7-7-|----------------------------------|
|--7-7-7-7-7-7-7-7-7-7-7-7-7-7-7-7-|-7-7-7-7-7-7-7-7-7-7-7-7-7-7-7-7--|
|--5-5-5-5-5-5-5-5-5-5-5-5-5-5-5-5-|-7-7-7-7-7-7-7-7-7-7-7-7-7-7-7-7--|
|----------------------------------|-7-7-7-7-7-7-7-7-7-7-7-7-7-7-7-7--|

|----------------------------------|-------------------------------------------|
|----------------------------------|-------------------------------------------|
|----------------------------------|-------------------------------------------|
|--8-8-8-8-8-8-8-8-8-8-8-8-8-8-8-8-|-10-10-10-10-10-10-10-10-10-10-10-10-xxxx--|
|--8-8-8-8-8-8-8-8-8-8-8-8-8-8-8-8-|-10-10-10-10-10-10-10-10-10-10-10-10-xxxx--|
|--8-8-8-8-8-8-8-8-8-8-8-8-8-8-8-8-|-10-10-10-10-10-10-10-10-10-10-10-10-xxxx--|

Pre-Verse: (Distortion)

Gtr I & II
|-----------------------------------|----------------------------------|
|o----------------------------------|----------------------------------|
|---7-7-7-7-7-7-7-7-7-7-7-7-7-7-7-7-|----------------------------------|
|---7-7-7-7-7-7-7-7-7-7-7-7-7-7-7-7-|-7-7-7-7-7-7-7-7-7-7-7-7-7-7-7-7--|
|o--5-5-5-5-5-5-5-5-5-5-5-5-5-5-5-5-|-7-7-7-7-7-7-7-7-7-7-7-7-7-7-7-7--|
|-----------------------------------|-7-7-7-7-7-7-7-7-7-7-7-7-7-7-7-7--|

|----------------------------------|------------------------------|
|----------------------------------|------------------------------|
|----------------------------------|------------------------------|
|--8-8-8-8-8-8-8-8-8-8-8-8-8-8-8-8-|-3-3-3-3-3-3-3-3-3-3-3-3-2-2--|
|--8-8-8-8-8-8-8-8-8-8-8-8-8-8-8-8-|-3-3-3-3-3-3-3-3-3-3-3-3-2-2--|
|--8-8-8-8-8-8-8-8-8-8-8-8-8-8-8-8-|-3-3-3-3-3-3-3-3-3-3-3-3-2-2--|

|----------------------------------|----------------------------------|
|----------------------------------|----------------------------------|
|--7-7-7-7-7-7-7-7-7-7-7-7-7-7-7-7-|----------------------------------|
|--7-7-7-7-7-7-7-7-7-7-7-7-7-7-7-7-|-7-7-7-7-7-7-7-7-7-7-7-7-7-7-7-7--|
|--5-5-5-5-5-5-5-5-5-5-5-5-5-5-5-5-|-7-7-7-7-7-7-7-7-7-7-7-7-7-7-7-7--|
|----------------------------------|-7-7-7-7-7-7-7-7-7-7-7-7-7-7-7-7--|

|----------------------------------|--------------------------------------------|
|----------------------------------|-------------------------------------------o|
|----------------------------------|--------------------------------------------|
|--8-8-8-8-8-8-8-8-8-8-8-8-8-8-8-8-|-10-10-10-10-10-10-10-10-10-10-10-10-xxxx---|
|--8-8-8-8-8-8-8-8-8-8-8-8-8-8-8-8-|-10-10-10-10-10-10-10-10-10-10-10-10-xxxx--o|
|--8-8-8-8-8-8-8-8-8-8-8-8-8-8-8-8-|-10-10-10-10-10-10-10-10-10-10-10-10-xxxx---|

Verse: (Clean)

Gtr I
|--------------------------|----------------------------|
|o-------------------------|----------------------------|
|---------7----------------|----------------------------|
|-------7---7-----7---5\3--|------7-9-7-----10---9---7--|
|o----5---------5---5------|----7-----------------------|
|---0----------------------|--7-----------7----7---7----|

|------------------------------|------------------------------|
|------------------------------|------------------------------|
|------------------------------|------------------------------|
|------8-10-8-----12---10---8--|------3-5-3--------5-7-5------|
|----8----------8----8----8----|----3---------3--5---------5--|
|--8---------------------------|--3------------5--------------|

|-------------------------|----------------------------|
|-------------------------|----------------------------|
|--------7----------------|----------------------------|
|------7---7-----7---5\3--|------7-9-7-----10---9---7--|
|----5---------5---5------|----7-----------------------|
|--0----------------------|--7-----------7----7---7----|

|------------------------------|-------------------------------------------|
|------------------------------|------------------------------------------o|
|------------------------------|-------------------------------------------|
|------8-10-8-----12---10---8--|--------10-11-10-----------11-13-11--------|
|----8----------8----8----8----|-----10------------10---11------------11--o|
|--8---------------------------|--10-----------------11--------------------|

Chorus: (Distortion)

Gtr I & II
|--------------------------------------------------------------------|
|--------------------------------------------------------------------|
|--------------------------------------------------------------------|
|--12-12-12-12-12-12-12-12-12-12-12-12-12\8-8-8-8-8-8-8-8-8-8-8-8-7--|
|--12-12-12-12-12-12-12-12-12-12-12-12-12\8-8-8-8-8-8-8-8-8-8-8-8-7--|
|--12-12-12-12-12-12-12-12-12-12-12-12-12\8-8-8-8-8-8-8-8-8-8-8-8-7--|

|---------------------------------------------------------------|
|---------------------------------------------------------------|
|---------------------------------------------------------------|
|--3-3-3-3-3-3-3-3-3-3-3-3-3-3-3-3-5-5-5-5-5-5-5-5-5-5-5-5-xxx--|
|--3-3-3-3-3-3-3-3-3-3-3-3-3-3-3-3-5-5-5-5-5-5-5-5-5-5-5-5-xxx--|
|--3-3-3-3-3-3-3-3-3-3-3-3-3-3-3-3-5-5-5-5-5-5-5-5-5-5-5-5-xxx--|

|--------------------------------------------------------------------|
|--------------------------------------------------------------------|
|--------------------------------------------------------------------|
|--12-12-12-12-12-12-12-12-12-12-12-12-12\8-8-8-8-8-8-8-8-8-8-8-8-7--|
|--12-12-12-12-12-12-12-12-12-12-12-12-12\8-8-8-8-8-8-8-8-8-8-8-8-7--|
|--12-12-12-12-12-12-12-12-12-12-12-12-12\8-8-8-8-8-8-8-8-8-8-8-8-7--|

|-------------------------------------------------------------------|
|-------------------------------------------------------------------|
|-------------------------------------------------------------------|
|--3-3-3-3-3-3-3-3-3-3-3-3-3-3-3-3-5-5-5-5-5-5-5-5-5-5-5-5-5-5-5-5--|
|--3-3-3-3-3-3-3-3-3-3-3-3-3-3-3-3-5-5-5-5-5-5-5-5-5-5-5-5-5-5-5-5--|
|--3-3-3-3-3-3-3-3-3-3-3-3-3-3-3-3-5-5-5-5-5-5-5-5-5-5-5-5-5-5-5-5--|

|-------------------------------------|
|-------------------------------------|
|-------------------------------------|
|--8-8-8-8-8-8-8-8-8-8-8-8-8-8-8-8-7--|
|--8-8-8-8-8-8-8-8-8-8-8-8-8-8-8-8-7--|
|--8-8-8-8-8-8-8-8-8-8-8-8-8-8-8-8-7--|

Verse: (Distortion)

Gtr I
|--------------------------|----------------------------|
|o-------------------------|----------------------------|
|---------7----------------|----------------------------|
|-------7---7-----7---5\3--|------7-9-7-----10---9---7--|
|o----5---------5---5------|----7-----------------------|
|---0----------------------|--7-----------7----7---7----|
    . . .       .   .         . . .       .    .   .    

|------------------------------|------------------------------|
|------------------------------|------------------------------|
|------------------------------|------------------------------|
|------8-10-8-----12---10---8--|------3-5-3--------5-7-5------|
|----8----------8----8----8----|----3---------3--5---------5--|
|--8---------------------------|--3------------5--------------|
   . . .        .    .    .       . . .        . . .    

|-------------------------|----------------------------|
|-------------------------|----------------------------|
|--------7----------------|----------------------------|
|------7---7-----7---5\3--|------7-9-7-----10---9---7--|
|----5---------5---5------|----7-----------------------|
|--0----------------------|--7-----------7----7---7----|
   . . .       .   .         . . .       .    .   .      

|------------------------------|-------------------------------------------|
|------------------------------|------------------------------------------o|
|------------------------------|-------------------------------------------|
|------8-10-8-----12---10---8--|--------10-11-10-----------11-13-11--------|
|----8----------8----8----8----|-----10------------10---11------------11--o|
|--8---------------------------|--10-----------------11--------------------|
   . . .        .    .    .       .  .  .            .  .  .          

Chorus: (Distortion)

Gtr I & II
|--------------------------------------------------------------------|
|--------------------------------------------------------------------|
|--------------------------------------------------------------------|
|--12-12-12-12-12-12-12-12-12-12-12-12-12\8-8-8-8-8-8-8-8-8-8-8-8-7--|
|--12-12-12-12-12-12-12-12-12-12-12-12-12\8-8-8-8-8-8-8-8-8-8-8-8-7--|
|--12-12-12-12-12-12-12-12-12-12-12-12-12\8-8-8-8-8-8-8-8-8-8-8-8-7--|

|----------------------------------|------------------------------|
|----------------------------------|------------------------------|
|----------------------------------|------------------------------|
|--3-3-3-3-3-3-3-3-3-3-3-3-3-3-3-3-|-5-5-5-5-5-5-5-5-5-5-5-5-xxx--|
|--3-3-3-3-3-3-3-3-3-3-3-3-3-3-3-3-|-5-5-5-5-5-5-5-5-5-5-5-5-xxx--|
|--3-3-3-3-3-3-3-3-3-3-3-3-3-3-3-3-|-5-5-5-5-5-5-5-5-5-5-5-5-xxx--|

|--------------------------------------------------------------------|
|--------------------------------------------------------------------|
|--------------------------------------------------------------------|
|--12-12-12-12-12-12-12-12-12-12-12-12-12\8-8-8-8-8-8-8-8-8-8-8-8-7--|
|--12-12-12-12-12-12-12-12-12-12-12-12-12\8-8-8-8-8-8-8-8-8-8-8-8-7--|
|--12-12-12-12-12-12-12-12-12-12-12-12-12\8-8-8-8-8-8-8-8-8-8-8-8-7--|

|----------------------------------|----------------------------------|
|----------------------------------|----------------------------------|
|----------------------------------|----------------------------------|
|--3-3-3-3-3-3-3-3-3-3-3-3-3-3-3-3-|-5-5-5-5-5-5-5-5-5-5-5-5-5-5-5-5--|
|--3-3-3-3-3-3-3-3-3-3-3-3-3-3-3-3-|-5-5-5-5-5-5-5-5-5-5-5-5-5-5-5-5--|
|--3-3-3-3-3-3-3-3-3-3-3-3-3-3-3-3-|-5-5-5-5-5-5-5-5-5-5-5-5-5-5-5-5--|

|-------------------------------------|
|-------------------------------------|
|-------------------------------------|
|--8-8-8-8-8-8-8-8-8-8-8-8-8-8-8-8-7--|
|--8-8-8-8-8-8-8-8-8-8-8-8-8-8-8-8-7--|
|--8-8-8-8-8-8-8-8-8-8-8-8-8-8-8-8-7--|

Bridge: (Distortion)
|--------------------------------------|
|o------------------------------------o|
|--------------------------------------|
|--------------------------------------|
|o--0-00-00-000-000-0000-00-0-0-0000--o|
|---0-00-00-000-000-0000-00-0-0-0000---|x4

Chorus: (Distortion)

|--------------------------------------------------------------------|
|--------------------------------------------------------------------|
|--------------------------------------------------------------------|
|--12-12-12-12-12-12-12-12-12-12-12-12-12\8-8-8-8-8-8-8-8-8-8-8-8-7--|
|--12-12-12-12-12-12-12-12-12-12-12-12-12\8-8-8-8-8-8-8-8-8-8-8-8-7--|
|--12-12-12-12-12-12-12-12-12-12-12-12-12\8-8-8-8-8-8-8-8-8-8-8-8-7--|

|----------------------------------|------------------------------|
|----------------------------------|------------------------------|
|----------------------------------|------------------------------|
|--3-3-3-3-3-3-3-3-3-3-3-3-3-3-3-3-|-5-5-5-5-5-5-5-5-5-5-5-5-xxx--|
|--3-3-3-3-3-3-3-3-3-3-3-3-3-3-3-3-|-5-5-5-5-5-5-5-5-5-5-5-5-xxx--|
|--3-3-3-3-3-3-3-3-3-3-3-3-3-3-3-3-|-5-5-5-5-5-5-5-5-5-5-5-5-xxx--|x3 

|--------------------------------------------------------------------|
|--------------------------------------------------------------------|
|--------------------------------------------------------------------|
|--12-12-12-12-12-12-12-12-12-12-12-12-12\8-8-8-8-8-8-8-8-8-8-8-8-7--|
|--12-12-12-12-12-12-12-12-12-12-12-12-12\8-8-8-8-8-8-8-8-8-8-8-8-7--|
|--12-12-12-12-12-12-12-12-12-12-12-12-12\8-8-8-8-8-8-8-8-8-8-8-8-7--|

|-------------------------------------------------------------------|
|-------------------------------------------------------------------|
|-------------------------------------------------------------------|
|--3-3-3-3-3-3-3-3-3-3-3-3-3-3-3-3-5-5-5-5-5-5-5-5-5-5-5-5-5-5-5-5--|
|--3-3-3-3-3-3-3-3-3-3-3-3-3-3-3-3-5-5-5-5-5-5-5-5-5-5-5-5-5-5-5-5--|
|--3-3-3-3-3-3-3-3-3-3-3-3-3-3-3-3-5-5-5-5-5-5-5-5-5-5-5-5-5-5-5-5--|

|-------------------------------------|
|-------------------------------------|
|-------------------------------------|
|--8-8-8-8-8-8-8-8-8-8-8-8-8-8-8-8-7--|
|--8-8-8-8-8-8-8-8-8-8-8-8-8-8-8-8-7--|
|--8-8-8-8-8-8-8-8-8-8-8-8-8-8-8-8-7--|


            
            
Suggest correction
Creating personal tab
Creating personal tab
You can edit any tab online and save it as your Personal.

You can edit, replace or remove any tab part or add personal notes – all changes will be seen only by you.

Personal tabs can be accessed anytime from any device, even offline.
Learn more »
Give kudos to tab author, rate the tab!
1 2 3 4 5
comments
print report bad tab
guest
You may want to rate the tab now too:
select rating
Wanna post a correction for this tab? Suggest correction