Oops, an error
Loading. Please wait.

Burning Fight Tab

2,408 views 9 this week
no commentswrite comment
1 2 3 4 5
excellent!
x 3
add to favorites
launch autoscroll
font size
0
reset
how to read this tab
guitar tuner
Autoscroll
slow
fast
+/-
esc
set tempo
stop
Help us to improve Ultimate-Guitar.com Take our survey!
×
The band doesn't have an official website, because they broke up in the 90's, but you 
find them on the record label's site in the band's section.
http://revelationrecords.com/index.php


Inside Out is the band Zack de la Rocha was in before Rage Against The Machine. This 
is on their only EP, No Spiritual Surrender. Any fan of Rage Against The Machine should 
check it out. If you have any questions or comments my email is cpann3@yahoo.com.

Tuning: Standard

Starts out with some feedback…

Section A
e-------------------------------------------------------------|
B-------------------------------------------------------------|
G--2----4--------2-4-5----------------------------------------|
D--2----4--------2-4-5--4--4-4--4--4-4--4-4-4-4-4--4444-------|
A--0----2--------0-2-3--4--4-4--4--4-4--4-4-4-4-4--4444-------|
E-----------------------2--2-2--2--2-2--2-2-2-2-2--2222-------|
                           * *     * *    * * *    ****

There are some variations in palm muting and length, but the chords are the same.

Some more feedback here...

Section B
e--------------------------------------------------------------------------|
B--------------------------------------------------------------------------|
G----------------------------------7-7-7-8-8-8-5-5-5-----------------------|
D--7--7-7-7-7-7-7-7-7-7-7-7-7-7-7--7-7-7-8-8-8-5-5-5-5-5-5-8--8------------|
A--7--7-7-7-7-7-7-7-7-7-7-7-7-7-7--5-5-5-6-6-6-3-3-3-5-5-5-8--8------------|
E--5--5-5-5-5-5-5-5-5-5-5-5-5-5-5--------------------3-3-3-6--6------------|
      |--------------------------------------------------------------------|
      *


Section C
e-------------------------------------------------------------------------|
B---------7p5--------- ~ -------------------------------------------------|
G---------7p5--- ~ --16----7-7-7-8-8-8-5-5--------------------------------|
D--7--x-x-------7----------7-7-7-8-8-8-5-5-5-5-5-5-8--8-------------------|
A--7--x-x------------------5-5-5-6-6-6-3-3-3-5-5-5-8--8-------------------|
E--5--x-x------------------------------------3-3-3-6--6-------------------|
                      P.H.

There is another lick in there that's a little different, but that's the basic idea.

Section D
e-------------------------------------------------------------------------|
B-------------------------------------------------------------------------|
G--2----2--2-2-------------------------------------3--3-------------------|
D--2----2--2-2--3----3--3-3-2--2-2-2-2-2-2-2-2-2-2-3--3-------------------|
A--0----0--0-0--3----3--3-3-2--2-2-2-2-2-2-2-2-2-2-1--1-------------------|
E --------------1----1--1-1-0--0-0-0-0-0-0-0-0-0-0------------------------|
                               |------------------------------------------|
                               *
Section E
e--------------------------------------------|
B--------------------------------------------|
G--x-x--7-7-7-8-8-8-5-5-5--------------------|
D--x-x--7-7-7-8-8-8-5-5-5-5-5-5-8--8---------|
A--x-x--5-5-5-6-6-6-3-3-3-5-5-5-8--8---------|
E ------------------------3-3-3-6--6---------|

Solo
e---------------------------------------------------------------------------|
B--11-------11-------11-----11----------13b15----13b15----13b15--13b15r13---|
G--13b15----13b15----13b15--13b15r13----------------------------------------|
D---------------------------------------------------------------------------|
A---------------------------------------------------------------------------|
E---------------------------------------------------------------------------|

This is a really basic version of the solo....not 100% but I haven't figured out the 
way to play it.

Song Order:
Section A-10x(Play slower first 2x and on the 10th time, hold the last 2 chords longer 
lead into the next section)
Section B-4x
Section C-1x
Section B-1x
Section D-2x
Section B-2x
Section C-1x
Section B-1x
Section D-4x
(Wait for bass lick)
Section E-x1
Solo-x1
Section B-x2

End on an A Chord  D-7
                   A-7
                   E-5

* = Palm Mute
~ = Vibrato
b = Bend
p = Pull off
P.H. = Pinch Harmonic

The last 2x of Section B at the end  have different strumming patterns, but use the same 
And...that's the whole song. Enjoy.
Suggest correction
Give kudos to tab author, rate the tab!
1 2 3 4 5
comments
print report bad tab
guest
You may want to rate the tab now too:
select rating
Wanna post a correction for this tab? Suggest correction