Oops, an error
Loading. Please wait.

Cielos Que Lloran Tab

version 1
version 1

Whole song

Interactive

18,093 views 9 this week
2 commentsread comments
1 2 3 4 5
1 last vote to show rating
add to favorites
launch autoscroll
font size
0
reset
how to read this tab
guitar tuner
Autoscroll
slow
fast
+/-
esc
set tempo
stop
Help us to improve Ultimate-Guitar.com Take our survey!
×
Author
Difficulty
intermediate
Intro
AFINADA EN DO ok
Es lo mas parecido que la pude..alomejor uno k otro errorsillo..de tiempo kisa..pero 
lo demas sta muy bien ,,ustedes akomodenlo a su gusto..xD...

e|-------|
B|-------|
G|-------|
D|-------|
A|-0-0---|(intro con el bajo)
C|-0-0---|


e|------------------------------------------------|
B|------------------------------------------------|
G|-----------------------------------------8-8-8--|guitarra
D|-----------------------------------------x-x-x--| (x2)
A|-----------------------------------------6-6-6--|
C|-0-0-7-0-7/8-10-8-7-10-8--0-0-7/8-10-8-7-x-x-x--|

e|-------------------------------------------------------------|
B|-------------------------------------------------------------|
G|-8-/--10-10-10-12-12-12-10-10/-9-9--14-14-12-12--15-15-14-14-|
D|-x-/--x--x--x--x--x--x--x--x-/-x-x--x--x--x--x---x--x--X--X--| (VERSO)
A|-6-/--8--8--8--10-10-10-8--8-/-7-7--12-12-10-10--13-13-12-12-|
C|-x-/--x--x--x--x--x--x--x--x-/-x-x--x--x--x--x---x--x--X--X--|

e|----------------------------------------------|
B|----------------------------------------------|
G|-17-17-15-14-14-14-14-8--8--10-10/-9-9-10-----|(VERSO)
D|-X--X--X--X--X--X--X--X--X--X--X-/-X-X-X------|
A|-15-15-13-12-12-12-12-10-10-8--8-/-7-7-8------|
C|-X--X--X--X--X--X--X--X--X--X--X-/-X-X-X------|

  Y al soniar te vi en un cuento .......
e|---------------------------------------------------|
B|---------------------------13-13-13-(X4)--X-X--X-X-|
G|--9-9-9-10-10-10--12-12-12----------(X4)--X-X--X-X-|
D|------------------------------------------X-X--X-X-|(PRECORO)
A|------------------------------------------X-X--X-X-|
C|------------------------------------------X-X--X-X-|

CORO:

e|-------------------------------------------------------|
B|-------------------------------------------------------|
G|----10-10-10-10--12-12--10-10-10--12-12-12-12-12-12----|
D|----X--X--X--X---X--X---X--X--X---X--X--X--X--X--X-----|
A|-00-8--8--8--8---10-10--8--8--8---10-10-10-10-10-10----|
C|-00-X--X--X--X---X--X---X--X--X---X--X--X--X--X--X-----|

e|--------------------------------------------------------|
B|--------------------------------------------------------|
G|-10-10-/-9-9------10-10-10-10--12-12--10-10-10-10-9-9-9-|
D|-X--X--/-X-X------X--X--X--X---X--X---X--X--X--X--X-X-X-|
A|-8--8--/-7-7--00--8--8--8--8---10-10--8--8--8--8--7-7-7-|
C|-X--X--/-X-X--00--X--X--X--X---X--X---X--X--X--X--X-X-X-|

e|----------------|
B|----------------|
G|-9-9-9-10-10-9--|
D|-X-X-X-X--X--X--|
A|-7-7-7-8--8--7--|
C|-X-X-X-X--X--X--|...

 Principio...

e|------------------------------------------------|
B|------------------------------------------------|
G|-----------------------------------------8-8-8--|
D|-----------------------------------------x-x-x--| (x2)
A|-----------------------------------------6-6-6--|
C|-0-0-7-0-7/8-10-8-7-10-8--0-0-7/8-10-8-7-x-x-x--|


    Abrazame.....
e|-------------------------------------------|
B|-------------------------------------------|
G|-------------------------------------------|(x8)
D|-------------------------------------------|
A|-0-7-7/8-10-8--0-7-8/7---------------------|
C|-------------------------------------------|

    Vuelvo a soniar....
e|----------------------------------------------------|
B|-------------------13-13-11-10----------------------|
G|----10-9--9/12--------------------------------------|
D|-88------------10-----------------------------------|
A|-88------------10-----------------------------------|
C|-88------------10-----------------------------------|

(1)
    Mi vida deja de iorar......
e|--------------------------------|
B|--------------------------------|
G|-----10-----10-----10-/-12/-10--|
D|-00--x--00--x--00--x--/-x-/-x---|
A|-00--8--00--8--00--8--/-10/-8---|
C|-00--x--00--x--00--x--/-x-/-x---|


e|-----------------------------------------------------|
B|-----------------------------------------------------|
G|--10-10-10-10--12-12--10-10-10--12-12-12-12-12-12----|
D|--X--X--X--X---X--X---X--X--X---X--X--X--X--X--X-----|
A|--8--8--8--8---10-10--8--8--8---10-10-10-10-10-10----|
C|--X--X--X--X---X--X---X--X--X---X--X--X--X--X--X-----|

e|--------------------------------------------------------|
B|--------------------------------------------------------|
G|-10-10-/-9-9------10-10-10-10--12-12--10-10-10-10-9-9-9-|
D|-X--X--/-X-X------X--X--X--X---X--X---X--X--X--X--X-X-X-|
A|-8--8--/-7-7--00--8--8--8--8---10-10--8--8--8--8--7-7-7-|
C|-X--X--/-X-X--00--X--X--X--X---X--X---X--X--X--X--X-X-X-|

e|----------------|
B|----------------|
G|-9-9-9-10-10-9--|
D|-X-X-X-X--X--X--|
A|-7-7-7-8--8--7--|
C|-X-X-X-X--X--X--|

se repite 2 veces desde donde dice "Mi vida deja de iorar...."(1)

  y se repite el principio x4

e|------------------------------------------------|
B|------------------------------------------------|
G|-----------------------------------------8-8-8--|
D|-----------------------------------------x-x-x--|
A|-----------------------------------------6-6-6--|
C|-0-0-7-0-7/8-10-8-7-10-8--0-0-7/8-10-8-7-x-x-x--|
Suggest correction
Give kudos to tab author, rate the tab!
1 2 3 4 5
comments
print report bad tab
2 comments total.
0 reply
grusxky 10 Aug 25, 2007 09:44 PM

I think you made a little mistake in the intro.

0 reply
angelblink000@ 10 Feb 12, 2011 08:30 PM

USA MEJOR ESTA AFINACION... C,G,C,F,A,D, ES MEJOR K LA QUE ESTAS USANDO Y USA CASI LOS MISMOS TABS... SOBRS AI NOS VEMOS SALUDOS DESDE CIUDAD VICTORIA TAMAULIPAS :D

guest
You may want to rate the tab now too:
select rating
Wanna post a correction for this tab? Suggest correction