Oops, an error
Loading. Please wait.

Cielos Que Lloran Tab

version 2
version 2

Whole song

Interactive

3,057 views 6 this week
no commentswrite comment
1 2 3 4 5
please rate
add to favorites
launch autoscroll
font size
0
reset
how to read this tab
guitar tuner
Autoscroll
slow
fast
+/-
esc
set tempo
stop
Help us to improve Ultimate-Guitar.com Take our survey!
×
Author
Tuning
C G C F A D
esta bastante sencilla la rola
no puse los tiempos
ahi saquenlos de odio no sean webones xD

Intro:
D|-------------------------------------------------|
A|-------------------------------------------------|
F|------------------------------------------8-8-8--|guitarra
C|------------------------------------------8-8-8--| (x2)
G|------------------------------------------6-6-6--|
C|-0-7-0-7-8/10-8-12-10-8--0-7-0-7-8-10-8-7-x-x-x--|


        Te vi volar   sobre cielos que te lloran siempre
D|--------------------------------------------------------------|
A|---------------------------------------- 10-------8------11---|
F|--10--------------12----10-----9---------9--------7------10---|
C|--10--------------12----10-----9---------7--------5------8----| (VERSO)
G|--8---------------10----8------7------------------------------|
C|--------------------------------------------------------------|


        Te vi caer   no te enseñaron que el sol destruye alas
D|---------------------------------------------------------------|
A|------10-------13--11-10----------------------------8-----5--6-|
F|------9--------12--10-9-----------------------------7-----4--5-| (VERSO)
C|------7--------10--8--7-----------------------------5-----2--3-|
G|---------------------------------------------------------------|
C|---------------------------------------------------------------|


PRECORO:

        Y al soñar...
        Te vi en un cuento tan distinto a otros
D|---------------------8-8-8-(x3)-|       |-------------8-------------|
A|---5-5-5-6-6-6-8-8-8------------|Después|-5-5-5-6-6-6----x-x--x-x---|
F|--------------------------------|sigue  |----------------x-x--x-x---|
C|--------------------------------|esto   |----------------x-x--x-x---|
G|--------------------------------|       |----------------x-x--x-x---|
C|--------------------------------|       |----------------x-x--x-x---|
                                                           ........PM
CORO:

        Mi vida deja de llorar   descansa aquí tranquila   duerme...
D|---------------------------------------------------------------------|
A|---------------------------------------------------------------------|
F|-----10------12-10--------12---------------5------7--9---10---9-7----|
C|-----10------12-10--------12---------------5------7--9---10---9-7----|
G|-00--8-------10-8---------10---------------3------5--7---8----7-5----|
C|-00------------------------------------------------------------------|


        No se si pueda despejar   El cielo que te llora ya
D|----------------------------------------------------------|
A|----------------------------------------------------------|
F|-----10--------12-10-------12-------------5------7--9--10-|
C|-----10--------12-10-------12-------------5------7--9--10-|
G|-----8---------10-8--------10-------------3------5--7--8--|
C|----------------------------------------------------------|


        Aquí se repite el INTRO
D|-------------------------------------------------|
A|-------------------------------------------------|
F|------------------------------------------8-8-8--|guitarra
C|------------------------------------------8-8-8--| (x2)
G|------------------------------------------6-6-6--|
C|-0-7-0-7-8/10-8-12-10-8--0-7-0-7-8-10-8-7-x-x-x--|


  Abrázame...
  Es tan difícil que el cielo quiera volverte a ver
  Ven siéntate...
  Te explicare como será tu vida aquí
D|-------------------------------------------|
A|-------------------------------------------|
F|-------------------------------------------|(x8)
C|-------------------------------------------|
G|-0-7-0-7-8-10-8-7-0-7-8-7------------------|
C|-------------------------------------------|


   Vuelvo a soñar que fuiste
   Un cuento tan distinto a otros
D|---1--1-0-1S3---8-8S6-6S5--------|
A|---------------------------------|
F|-3------------5------------------|
C|-3------------5------------------|
G|-1------------3------------------|
C|---------------------------------|


             Mi vida deja de llorar  descansa aquí tranquila   duerme...
D|------------------------------------------------------------------------|
A|------------------------------------------------------------------------|
F|----10---10---10-12-10--------12--------------5------7--9---10---9-7----|
C|----10---10---10-12-10--------12--------------5------7--9---10---9-7----|
G|-00-8-00-8-00-8--10-8---------10--------------3------5--7---8----7-5----|
C|-00---00---00-----------------------------------------------------------|


        No se si pueda despejar   El cielo que te llora ya
D|----------------------------------------------------------|
A|----------------------------------------------------------|
F|-----10--------12-10-------12-------------5------7--9--10-|
C|-----10--------12-10-------12-------------5------7--9--10-|
G|-----8---------10-8--------10-------------3------5--7--8--|
C|----------------------------------------------------------|


              Mi vida deja de llorar   La historia hoy terminara
D|-----------------------------------------------------------------------|
A|-----------------------------------------------------------------------|
F|----10----10-----10-12-10--------12----------------5------7-9-10-9-7---|
C|----10----10-----10-12-10--------12----------------5------7-9-10-9-7---|
G|-00-8--00-8--00--8--10-8---------10----------------3------5-7-8--7-5---|
C|-00----00----00--------------------------------------------------------|


        No supe por donde empezar   pero al final te vi volar
D|------------------------------------------------------------|
A|------------------------------------------------------------|
F|-----10--------12-10-------12---------------5-------7--9-10-|
C|-----10--------12-10-------12---------------5-------7--9-10-|
G|-----8---------10-8--------10---------------3-------5--7-8--|
C|------------------------------------------------------------|


    FINAL
D|-------------------------------------------------|
A|-------------------------------------------------|
F|------------------------------------------8-8-8--|guitarra
C|------------------------------------------8-8-8--| (x4)
G|------------------------------------------6-6-6--|
C|-0-7-0-7-8/10-8-12-10-8--0-7-0-7-8-10-8-7-x-x-x--|
Suggest correction
Give kudos to tab author, rate the tab!
1 2 3 4 5
comments
print report bad tab
guest
You may want to rate the tab now too:
select rating
Wanna post a correction for this tab? Suggest correction