Oops, an error
Loading. Please wait.

Contigo Hasta La Muerte Bass

by Insite
47 views 1 this week
no commentswrite comment
1 2 3 4 5
3 more votes to show rating
add to favorites
launch autoscroll
font size
0
reset
guitar tuner
×
Best way to learn
"Contigo Hasta La Muerte"
Autoscroll
slow
fast
+/-
esc
set tempo
stop
Afinacion: Drop C

Intro:

F ---------------------------------------------------------
C --------------------------------------------------------- 2x
G ---------------------------------------------------------
C----55---55----55-----55---7-------22------22---22---22---

Verso:4x
El día llego con soledad Y no sientes quien te toca?

F -------------------------------------------------
C -------------------------------------------------
G -----3-3-3---5--0-00-0--0-0----------------------
C-------------------------------2-2-2-2-2-2--2----

F ------------------
C ---------5--------
G -7-7--5-----3-3---
C-------------------

Coro:

Vida ven esto ya lo vivi otra vez.....

F ---------------------------------------------
C ---------------------------------------------
G ------------------------------3-3-3-3-3-3-3--
C-5-5-5-5-5-5----2-2-2-2-2-2-2-----------------

F --------------------------------------
C --------------------------------------
G --0--0-0-0-0-0-0-0--------------------
C--------------------2-2-2-2-2-2-2-2----

Intro de nuevo:

F ------------------------------------------------
C ------------------------------------------------
G ------------------------------------------------
C--55----55----5-5---55-7----22------22---22--22--

Verso:
Ayer vi tu alma tan diferente?.

F -------------------------------------------------
C ------------------------------------------------- 2x
G -3-3-3-3-3-3-3-3-3---0-0-0-0-0-0-0---------------
C------------------------------------2-2-2-2-2-2-2-

Coro:3x
Vida ven esto ya lo vivi otra vez.....
F ---------------------------------------------
C ---------------------------------------------
G ------------------------------3-3-3-3-3-3-3--
C-5-5-5-5-5-5----2-2-2-2-2-2-2-----------------

F --------------------------------------
C --------------------------------------
G --0--0-0-0-0-0-0-0--------------------
C--------------------2-2-2-2-2-2-2-2----

 Vida ven esto ya lo vivi otra vez?.
F --------------------------------
C --------------------------------
G --------------------------------
C-----------5~~~~~~~--------------

F -----------------------
C -----------------------
G -----------------------
C---2x2x2x2x2x2----------

Llévame contigo  No te separes ni un minuto de mi.....

F -------------------------------------------------------
C -------------------------------------------------------
G -5-5-5-5-5-5-5-5-5--5-5-5--7-7-7-7-7-7-7-7-77-7-7-7-7--
C--------------------------------------------------------

     Hoy..
F -------------------------------
C -------------------------------
G -------------------------------
C---3-3-3-3-3-3-3-3-3-3-3-3-3-3--

F ---------------------------------------------
C ---------------------------------------------
G ---------------------------------------------
C-5-5-5-5-5-55-5-5--77-7-7-77---2-2-2-2-2-2-2--

   Y es que alguien ayer murio
F -------------------------------------------
C -------------------------------------------
G --3-3-3-3-3-3-3-3-3-3-3-0--0-0-0-0-0-0-0---
C--------------------------------------------


   Y fuimos tu y                yooooooo
F-------------------------------------------
C-------------------------------------------
G-0-0-0-0-0-0-0-0-0-0-0-0-0-0-0-------------
C-------------------------------2~~~~~~~~~~-
Suggest correction
Give kudos to tab author, rate the tab!
1 2 3 4 5
comments
print report bad tab
guest
You may want to rate the tab now too:
select rating
Wanna post a correction for this tab? Suggest correction