Oops, an error
Loading. Please wait.

Contigo Hasta La Muerte Tab

47 views 3 this week
no commentswrite comment
1 2 3 4 5
3 more votes to show rating
add to favorites
launch autoscroll
font size
0
reset
how to read this tab
guitar tuner
×
Best way to learn
"Contigo Hasta La Muerte"
Autoscroll
slow
fast
+/-
esc
set tempo
stop
Insite - Contigo hasta la muerte

A, E, F#, C#, B

Bájenle dos tonos(trastes) a cada cuerda de la guitarra.


-Intro- x2
e|-------------------------------------------------------------
B|-------------------------------------------------------------
G|----------7-7-7-7-------7-7-7----------7-7-7-7---------------
D|--5--5-5--7-7-7-7--5-5--7-7-7--5--5-5--7-7-7-7--5-5--7-7-7---
A|--5--5-5--5-5-5-5--5-5--5-5-5--5--5-5--5-5-5-5--5-5--7-7-7---
E|--3--3-3-----------3-3---------3--3-3-----------3-3--5-5-5---

e|-----------------------------------------------------|
B|-----------------------------------------------------|
G|----------4-4-4-4-------4-4-4----------4-4-4-4-------|
D|--2--2-2--4-4-4-4--2-2--4-4-4--2--2-2--4-4-4-4--4~---|
A|--2--2-2--2-2-2-2--2-2--2-2-2--2--2-2--2-2-2-2--4~---|
E|--0--0-0-----------0-0---------0--0-0-----------2~---|


Verso1
e|---------------------------------------------------------------
B|---------------------------------------------------------------
G|------------------------------------------------------5~-------
D|--5~--------------------------------------------------5~-------
A|--5~--------------------------------------------------3~-------
E|--3~-----------------------------------------------------------
      El dio llego con soledad. Y no sientes quien te toca...

E---------------------------------------------------------------|
B---------------------------------------------------------------|
G------------------------------------------------------7~-------|
D--5~--------------------------------------------------7~-------|
A--5~--------------------------------------------------5~-------|
E--3~-----------------------------------------------------------|
y hoy estas despierta como ayer. Sin embargo no me puedes ver...


-Coro-
e|---------------------------------------------------------------
B|---------------------------------------------------------------
G|---------------------------7-7-7-7-7-7-7-7-7-7-7-7-------------
D|--5-5-5-5-5-5-5-5-5-5-5-5--7-7-7-7-7-7-7-7-7-7-7-7-------------
A|--5-5-5-5-5-5-5-5-5-5-5-5--5-5-5-5-5-5-5-5-5-5-5-5-------------
E|--3-3-3-3-3-3-3-3-3-3-3-3--------------------------------------

e-----------------------------------------------------------|
B-----------------------------------------------------------|
G--5-5-5-5-5-5-5-5-5-5-5-5----------------------------------|
D--5-5-5-5-5-5-5-5-5-5-5-5-7-7-7-7-7-7----7-7-7--7-7~--7-7--|
A--3-3-3-3-3-3-3-3-2-2-2-2-7-7-7-7-7-7----7-7-7--7-7~--7-7--|
E--------------------------5-5-5-5-5-5----5-5-5--5-5~--5-5--|
                                            . .  .       .

-Intro-

-Verso2-
e|-----------------------------------
B|-----------------------------------
G|----------------7------------------
D|-5--------------7-x32--------------
A|-5-x32----------5------------------
E|-3---------------------------------
   .              .
   Ayer vi........también tu...

e|------------------------------------------------------|
B|------------------------------------------------------|
G|---------------------------7-7-7-7-7-7-7-7-7-7-7-7----|
D|--5-5-5-5-5-5-5-5-5-5-5-5--7-7-7-7-7-7-7-7-7-7-7-7----|
A|--5-5-5-5-5-5-5-5-5-5-5-5--5-5-5-5-5-5-5-5-5-5-5-5----|
E|--3-3-3-3-3-3-3-3-3-3-3-3-----------------------------|
      Insisto amooor...        ...explícame...


-Coro- x2

e|-------|
B|-------|
G|-------|
D|---5~--|
A|---5~--|
E|---3~--|
     Vida ven...

e-------------------------|
B-------------------------|
G---7-7-7--7-7-7-7--7-7-7-|
D---7-7-7--7-7-7-7--7-7-7-|
A---5-5-5--5-5-5-5--5-5-5-|
E-------------------------|
      . .  .   . .  .   .

-Bridge-
e------------------------------------------------
B------------------------------------------------
G--7-7-7-7-7-7-7-7-7-7-7-------------------------
D--7-7-7-7-7-7-7-7-7-7-7--5-5-5-5-5-5-5-5-5-5-5--
A--5-5-5-5-5-5-5-5-5-5-5--5-5-5-5-5-5-5-5-5-5-5--
E-------------------------3-3-3-3-3-3-3-3-3-3-3--
   Llévame contigo.......separes ni un minuto....

e--------------------------------------------------|
B--------------------------------------------------|
G--5-5-5-5-5-5-5-5-5-5-5--4-4-4-4-4-4--------------|
D--5-5-5-5-5-5-5-5-5-5-5--4-4-4-4-4-4-7-7-7-7-7-7--|
A--3-3-3-3-3-3-3-3-3-3-3--2-2-2-2-2-2-7-7-7-7-7-7--|
E-------------------------------------5-5-5-5-5-5--|
...hooooy...          ...regrese otra vez

e-----|
B-----|
G-----|
D--5~-|
A--5~-|
E--3~-|

-Coro-

*LETRA*
-Verso1-
El día llego con soledad
Y no sientes quien te toca
Mientras dormías, te sentí fría
Y hoy estas despierta como ayer
Sin embargo, no me puedes ver.
Mientras dormía, sentiste lo mismo que yo

-Coro-
Vida ven.
Esto ya lo viví otra vez.
Y mi sangre ya no es del mismo color,
Ya se acabo.

-Verso2-
Ayer vi tu alma tan diferente
También tu rostro estrellado en mi piel
Insisto amor. (Ya lo entendí)
Explícame que esta pasando.

-Coro-
-Coro2-
Y no se como explicarte bien.
Quizás la vida nos fallo otra vez.
Y es que alguien ayer murió y fuimos tu y yo.

-Coro-

-Bridge-
Llévame contigo
No te separes ni un minuto de mi hoy.
Hasta que el sol regrese otra vez.


Y es que alguien ayer murió y fuimos tu y yo.
Suggest correction
Give kudos to tab author, rate the tab!
1 2 3 4 5
comments
print report bad tab
guest
You may want to rate the tab now too:
select rating
Wanna post a correction for this tab? Suggest correction