Oops, an error
Loading. Please wait.

Discpame Me Rindo Tab

959 views 1 this week
no commentswrite comment
1 2 3 4 5
please rate
add to favorites
launch autoscroll
font size
0
reset
how to read this tab
guitar tuner
Autoscroll
slow
fast
+/-
esc
set tempo
stop
Help us to improve Ultimate-Guitar.com Take our survey!
×
Author
Difficulty
Tuning
intermediate
D A D G B E
Insite
Discúlpame Me Rindo (Track 4)
Una Vida No Es Suficiente


Intro (Se Hacen Las 2 Guitarras)
e----------------------------------------------------------]
B----------------------------------------------------------]
G----------------------------------------------------------]
D----------------------------------------------------------]
A----------------------------------------------------------]
E---------------------------pickslide----------------------]

Intro 2 (Guitarra 1)

e---------------------------------------------------------------]
B---------------------------------------------------------------]
G-141414141414141414-111111111111111111-777777777777777777------]2 veces
D-141414141414141414-111111111111111111-777777777777777777------]
A-121212121212121212-9-9-9-9-9-9-9-9-9--555555555555555555------]
E-121212121212121212-9-9-9-9-9-9-9-9-9--555555555555555555------]

Intro 2 (Guitarra 2)
e---------------------------------------------------------------]
B---------------------------------------------------------------]
G-141414141414141414-111111111111111111-777777777666666666------]2 veces
D-141414141414141414-111111111111111111-777777777777777777------]
A-121212121212121212-9-9-9-9-9-9-9-9-9--555555555555555555------]
E-121212121212121212-9-9-9-9-9-9-9-9-9--555555555555555555------]

Hoy Vengo A Entregarte Am.........

Guitarra 1  (Se Hace Con pausas Escucha La Canción)

e-------------------------------------------------------------------|
B-------------------------------------------------------------------|
G-141414141414141414-111111111111111111[121212121212121212-]--------|
D-141414141414141414-111111111111111111[121212121212121212----------|2 veces
A-121212121212121212-9-9-9-9-9-9-9-9-9-[101010101010101010-]--------|
E-------------------------------------------------------------------|

Guitarra 2 (igual con pausas)

e------------------------------------------------------------------]
B------------------------------------------------------------------]
G-141414141414141414-111111111111111111[777777777-]----------------]
D-141414141414141414-111111111111111111[777777777-]2 veces---------]
A-121212121212121212-9-9-9-9-9-9-9-9-9-[555555555-]----------------]
E------------------------------------------------------------------]

Guitarra 1 y 2

Y Hoy Me Entrgo A Ti...........

e--------------------------------------------------------------------|
B--------------------------------------------------------------------|
G--------------------------------------------------------------------|
D-222222222222-555555555555-999999999999-0-555555555555-000000000000-|
A-222222222222-555555555555-999999999999-0-555555555555-000000000000-|
E-222222222222-555555555555-999999999999-0-555555555555-000000000000-|

e----------------]
B----------------]
G----------------]
D-777777777777---]
A-777777777777---]
E-777777777777---]

Disculpame No Pude............

Guitarra 1

e------------------------------------------------------]
B------------------------------------------------------]
G------------------------------------------------------]
D-000000000000-555555555555\-000000000000-777777777777-]
A-000000000000-555555555555\-000000000000-777777777777-]
E-000000000000-555555555555\-000000000000-777777777777-]

Guitarra 2  (No Estoi 100% Seguro  Pero Maso Menos Es Asi Se Toca Rapido)

e-------------------------------------------------------------------------|
B-------------------------------------------------------------------------|
G-------------------------------------------------------------------------|
D-0-14-0-12-0-11-0-12-0-9-0-11-0-7-0-14-0-12-0-11-0-12-0-14-0-18----------|
A-------------------------------------------------------------------------|
E-------------------------------------------------------------------------|

e-------------------------------------------------------------------------|
B-------------------------------------------------------------------------|
G-------------------------------------------------------------------------|
D-0-14-0-14-0-12-0-11-0-12-0-9-0-11-0-7-0-14-0-12-0-11-0-12-0-9-0-10-0-14-|
A-------------------------------------------------------------------------|
E-------------------------------------------------------------------------|

e-------------------------------------------------------------------------]
B-------------------------------------------------------------------------]
G-------------------------------------------------------------------------]
D-0-14-0-12-0-11-0-12-0-9-0-11-0-7v---------------------------------------]
A-------------------------------------------------------------------------]
E-------------------------------------------------------------------------]

(Guitarra 1)

e---------------------------------------------------------------]
B---------------------------------------------------------------]
G-141414141414141414-111111111111111111-777777777777777777------]
D-141414141414141414-111111111111111111-777777777777777777------]
A-121212121212121212-9-9-9-9-9-9-9-9-9--555555555555555555------]
E-121212121212121212-9-9-9-9-9-9-9-9-9--555555555555555555------]

Intro 2 (Guitarra 2)
e---------------------------------------------------------------]
B---------------------------------------------------------------]
G-141414141414141414-111111111111111111-777777777666666666------]
D-141414141414141414-111111111111111111-777777777777777777------]
A-121212121212121212-9-9-9-9-9-9-9-9-9--555555555555555555------]
E-121212121212121212-9-9-9-9-9-9-9-9-9--555555555555555555------]

Guitarra 1 (Se alternan las 2)
Ven y.......................no tienes q llorar

e----------------------------------------------]
B----------------------------------------------]
G-14-14-14-14-11111111-12-12-12-12-12-12-12-12-]
D-14-14-14-14-11111111-12-12-12-12-12-12-12-12-]
A-12-12-12-12-9-9-9-9--10-10-10-10-10-10-10-10-]
E----------------------------------------------]

No Importa Todo esta ......
Guitarra 1
e-------------------------------------------------------------------]
B-------------------------------------------------------------------]
G-141414141414141414-111111111111111111-[121212121212121212]--------]
D-141414141414141414-111111111111111111-[121212121212121212]--2veces]
A-121212121212121212-9-9-9-9-9-9-9-9-9--[101010101010101010]--------]
E-------------------------------------------------------------------]

Guitarra 2

e--------------------------------------------------]
B--------------------------------------------------]
G--------------------------------------------------]
D-121212121212121212-999999999-555555555555555555--]
A-121212121212121212-999999999-555555555555555555--]
E-121212121212121212-999999999-555555555555555555--]

Y Hoy Me Entrego A Ti....

Guitarra 1 y 2

e--------------------------------------------------------------------|
B--------------------------------------------------------------------|
G--------------------------------------------------------------------|
D-222222222222-555555555555-999999999999-0-555555555555-000000000000-|
A-222222222222-555555555555-999999999999-0-555555555555-000000000000-|
E-222222222222-555555555555-999999999999-0-555555555555-000000000000-|

e----------------]
B----------------]
G-777777777777---]
D-777777777777---]
A-777777777777---]
E-777777777777---]

Disculpame................  (Final)

Guitarra 1

e------------------------------------------------------]
B------------------------------------------------------]
G------------------------------------------------------]
D-000000000000-555555555555\-000000000000-777777777777-]2 veces
A-000000000000-555555555555\-000000000000-777777777777-]
E-000000000000-555555555555\-000000000000-777777777777-]

Guitarra 2  (No Estoi 100% Seguro  Pero Maso Menos Es Asi Se Toca Rapido)

e-------------------------------------------------------------------------|
B-------------------------------------------------------------------------|
G-------------------------------------------------------------------------|
D-0-14-0-12-0-11-0-12-0-9-0-11-0-7-0-14-0-12-0-11-0-12-0-14-0-18----------|
A-------------------------------------------------------------------------|
E-------------------------------------------------------------------------|

e-------------------------------------------------------------------------|
B-------------------------------------------------------------------------|
G-------------------------------------------------------------------------|
D-0-14-0-14-0-12-0-11-0-12-0-9-0-11-0-7-0-14-0-12-0-11-0-12-0-9-0-10-0-14-|
A-------------------------------------------------------------------------|
E-------------------------------------------------------------------------|

e--------------------------------------------------------]
B--------------------------------------------------------]
G--------------------------------------------------------]2 Veces
D-0-14-0-12-0-11-0-12-0-9-0-11-0-7v----------------------]
A--------------------------------------------------------]
E--------------------------------------------------------]


e-----------]
B-----------]
G-----7-----]
D-000-7-----]   ^^
A-000-5-----]
E-000-------]


Aclaracion o duda jesusofsuburbian123@hotmail
Gracias Espero Les Guste
Dedicada Para marianitap :D!!!!
Suggest correction
What's this?
You can suggest a correction to this tab. Community and Mods will review your correction and vote to approve or reject it.
comments
We did not receive enough feedback on this tab! Please rate:
print report bad tab
1 2 3 4 5
guest
You may want to rate the tab now too:
select rating
Please do not post tabs as comments. Select "correction" instead!