Oops, an error
Loading. Please wait.

Distante Tab

by Insite
11 views 1 this week
no commentswrite comment
1 2 3 4 5
3 more votes to show rating
add to favorites
×
Save as Personal and add changes to this tab that will be seen only by you. Learn more ›
×
You can save this tab as Personal to edit and correct it or add notes. All changes will be seen only by you. Learn more »
save as personal
new!
launch autoscroll
font size
0
reset
how to read this tab
guitar tuner
Autoscroll
slow
fast
+/-
esc
set tempo
stop
bueno esta cacion es muy bonita y
ps va dedicada a linda tania plazas q  la amo mucho
y para unos amigos q no la encontraban
bueno ps aqui las tienen...jejejeje
si hay alguna pregunta mi correo es jhonny3mo@


insite - distante

esto es lo q  hace el teclado en el principio

intro
e|--------------------|   e|----------------|
B|----5-4-7-5-4-5-----|   B|----5-4-7-------|
G|--------------------|x3 G|----------------|
D|--------------------|   D|----------------|
A|--------------------|   A|----------------|
E|--------------------|   E|----------------|

verso.
  aveces quisiera abrazarte perdirte una oporti...
 PM............................................
e|----------------------|----------------------|    e|-----| e|--------|
B|----------------------|----------------------|    B|-----| B|--------|
G|----------------------|----------------------|    G|-----| G|--4-----|
D|----------------------|----------------------|x17 D|--7--| D|--4-x10-|
A|---7---6---9---7---6-7|---7---6---9---7---6-7|    A|--7--| A|--2-----|
E|----0-0-0-0-0-0-0-0---|0-0-0-0-0-0-0-0-0-0---|    E|--5--| E|--------|

coro.
  te miro aqui y sin dudar persigo tu rastro...
e|----------------------------------------|
B|----------------------------------------|
G|---9-------4---------------6------4-----|
D|---9-x10---4-x10---7-------6-x5---4-x5--|x2
A|---7-------2-------7-x10---4------2-----|
E|-------------------5--------------------|

 verso.
 solo permiteme tocarte darte el amor q yo te qu...
  PM...........................................
e|----------------------|----------------------|    e|------|
B|----------------------|----------------------|    B|------|
G|----------------------|----------------------|    G|------|
D|----------------------|----------------------|x17 D|--7--|
A|---7---6---9---7---6-7|---7---6---9---7---6-7|    A|--7--|
E|----0-0-0-0-0-0-0-0---|0-0-0-0-0-0-0-0-0-0---|    E|--5--|


coro.
 te miro aqui y sin dudar persigo tu rastro...
e|----------------------------------------|
B|----------------------------------------|
G|---9-------4---------------6------4-----|
D|---9-x10---4-x10---7-------6-x5---4-x5--|x4
A|---7-------2-------7-x10---4------2-----|
E|-------------------5--------------------|


solo
e|---------------------------------------------------|
B|---5-7-9-10-9-10-12-14-16-17-16-17~~~-17b19b18-17--|
G|---------------------------------------------------|
D|---------------------------------------------------|
A|---------------------------------------------------|
E|---------------------------------------------------|

e|-------17-----16-----19-----17-----16-17--|
B|--17-17--17-17--17-17--17-17--17-17-------|
G|------------------------------------------|x3
D|------------------------------------------|
A|------------------------------------------|
E|------------------------------------------|

e|-------17-----16-----19-19-19 19------|
B|--17-17--17-17--17-17------------17~--|
G|--------------------------------------|
D|--------------------------------------|
A|--------------------------------------|
E|--------------------------------------|

                         oooooooo es para ti
e|---------------------------------------------------|
B|---------------------------------------------------|
G|---------------------------------------------------|
D|------9-x5------4-x5---------------6-x2-----4-x3---|
A|---7-7-------2-2----------7-x5--4-4------2-2-------|
E|-----------------------5-5-------------------------|


sin distorcion
 tus ojos me dicen lo que hay en mi
e|----------------------------------------|
B|----------------------------------------|
G|---9-------4---------------6------4-----|
D|---9-x10---4-x10---7-------6-x5---4-x5--|
A|---7-------2-------7-x10---4------2-----|
E|-------------------5--------------------|


coro.
 te miro aqui y sin dudar persigo tu rastro...
e|----------------------------------------|
B|----------------------------------------|
G|---9-------4---------------6------4-----|
D|---9-x10---4-x10---7-------6-x5---4-x5--|x4
A|---7-------2-------7-x10---4------2-----|
E|-------------------5--------------------|

tapping 2 guitarra
e|--------------------------------------------------------------|
B|-------------------------------------------------12-12-12~~---|
G|--11t8t9-x10--13t8t9-x10--14t8t9-x10--16t7t9-x10------------9~|
D|--------------------------------------------------------------|
A|--------------------------------------------------------------|
E|--------------------------------------------------------------|

e|--------------------|   e|----------------|
B|----5-4-7-5-4-5-----|   B|----5-4-7-------|
G|--------------------|x3 G|----------------|
D|--------------------|   D|----------------|
A|--------------------|   A|----------------|
E|--------------------|   E|----------------|


PM  palm mute
~  vibrato
t  tapping
b  bending
Suggest correction
Give kudos to tab author, rate the tab!
1 2 3 4 5
comments
print report bad tab
guest
Wanna post a correction for this tab? Suggest correction