Oops, an error
Loading. Please wait.

El Mundo Esta A Tus Pies Chords

version 1
version 1

Whole song

325 views 1 this week
no commentswrite comment
1 2 3 4 5
3 more votes to show rating
add to favorites
launch autoscroll
font size
0
reset
transpose
0
reset
simplify chords
display chords
guitar tuner
Autoscroll
slow
fast
+/-
esc
set tempo
stop
Help us to improve Ultimate-Guitar.com Take our survey!
×
Intro (2 veces)

|--------------------------------------------------------------------|
|--------------------------------------------------------------------|
|--------------------------------------------------------------------|
|--------------------------------------------------------------------|
|-------5------5----5-------5---------5-----5--------5--------5-----5|
|-3-3----3-3----3----3--3-----3--3-----3------7--7-----7--7-----7----|

|----------------------------------------------------------|
|----------------------------------------------------------|
|----------------------------------------------------------|
|----------------------------------------------------------|
|-------5------5----5------5------5----5------5-----5----5-|
|--7-7----7-7----7----5-5----5-5----5----5-5----5-5----5---|

intro: G5 B5 A5

      A5  B5
Ven y acércate a mi
      A5  G5
 Déjame contarte algo nuevo acércateme
      B5
 Que mis sueños te veo partir
       A5
  Que mi alma no regresa
       B5
  Ya se fue con tigo


    A5
  Y me pierdo en ti
 B5
  Tu sabes bien que no miento
    A5     G5
  Tan solo déjame enseñarte que

  el mundo esta a tus pies con migo
     A5
  Sangro por ti
 B5
  Ya sabes yo quiero verme
   A5
  Sentado junto a ti el día
  G5
  No existe cada ves que te vas
     G5 B5 A5
  (Te vas de mi)


         A5   B5 A5
  Siempre quiero regresar

  a sufrir por ti me sirve tanto
     G5
  Yo ya no puedo escapar
  G5   B5
  (ve lo que hiciste de mi)
     A5
  ya estoy muerto que mas quieres saber

B5
  Y me pierdo en ti
    A5
  tu sabes bien que no miento
   G5
  tan solo déjame enseñarte
  B5
  que el mundo esta a tus pies conmigo

    A5
  Vengo por ti
 B5
  esta vez yo quiero verme
  G5
  sentado junto a ti
      B5   A5
  el día no existe cada vez que te vas,

 (te vas de mi..)

G5 B5 A5 B5

 G5                           B5
  Tus ojos suspiro y yo me pierdo,
       A5   B5
  me siento tranquilo cuando te tengo
 G5
  y hoy te vas
 B5
  te siento lejos
 A5   B5          G5          G5 B5 A5 B5
  y hoy te vas

  hoy te vas de mi (hoy te vas de mi...)


 G5    B5
  Sabes que siento por ti
   A5   A5
  es mas grande que tu y yo.
Suggest correction
Give kudos to tab author, rate the tab!
1 2 3 4 5
comments
print report bad tab
guest
You may want to rate the tab now too:
select rating
Wanna post a correction for this tab? Suggest correction