Oops, an error
Loading. Please wait.

Las Mismas Cosas Tab

62 views 1 this week
no commentswrite comment
1 2 3 4 5
3 more votes to show rating
add to favorites
launch autoscroll
font size
0
reset
how to read this tab
guitar tuner
Autoscroll
slow
fast
+/-
esc
set tempo
stop
Help us to improve Ultimate-Guitar.com Take our survey!
×
muy bien estabaa escuchando esta cancion de insite y
pues sake rapidamente estos
acordees

esta cancion esta afinada en drop c

intro y verso
guitarra ritmica
1|-------------------------------------------------------
2|-------------------------------------------------------
3|------------------------------------------5-55-5-5-55-5
4|2-22-2-2-22-2-4-44-4-4-44-4-5-55-5-5-55-5-5-55-5-5-55-5 (X 2)
5|2-22-2-2-22-2-4-44-4-4-44-4-5-55-5-5-55-5-3-33-3-3-33-3
6|2-22-2-2-22-2-4-44-4-4-44-4-5-55-5-5-55-5--------------

guitarra lider
1|-------------------------------------------------------
2|-------------------------------------------------------
3|12-12121212-12-12-12121212-12-10.....10.........7-7777-
4|-------------------------------------------------------
5|10-10101010-10-10-10101010-10-9-9999-9-9-9999-9-5-5555-
6|-------------------------------------------------------

1|--------------------------
2|--------------------------
3|7-7-7777-7-9-9999-9-9-9999
4|7-7-7777-7-9-9999-9-9-9999
5|5-5-5555-5-7-7777-7-7-7777
6|--------------------------
   D             E           F          B
Voy recorriendo historias y momentos de un amor
     D             E           F          B
desaparezco horas con segundos pero hoy
     D~            E~          F~
es dia 6 y no sirve de nada
     D~            E~          F~
el dia pasa y no sirve de nada

(la otra guitarra cuando cambian los tiempos empieza asiendo algo
como esto)

guitarra lider
1|-----------------------------------------------
2|12-12-12-12-12-12-10-10-10-10-10-10-8-8-8-8-8-8
3|12-12-12-12-12-12-11-11-11-11-11-11-9-9-9-9-9-9
4|-----------------------------------------------
5|----------------------------------------------
6|-----------------------------------------------


     D             E           F          B
...amanece otra historia va empezando un escalon
     D             E           F          B
viene sufriendo tiempo atras de un dia como hoy
     D~            E~          F~
la vida va golpendonos la espalda
     D~            E~          F~
traemos la cruz cargandola en el alma

coro:
              F         A           D            B
pero aqui no estoy imaginandome las mismas cosas que me destruyen
              F         A           D            B
escuche una vos, iba gritandome las mismas cosas que yo siempre supe

(de esta parte no estoy tan seguro pero es suena algo parecido a esto
 creo :S)

guitarra lider
1|
2|12--------------------12---12----12---12
3|-12-11-12-14-12-11-12--12-11-12-11-12-11-12-11-12-14-12-11-12


break///:

 D - D# - E - D#

 D - D# - E - D#
escucho una vooz.

     D~            E~          F~
la vida va golpeandonos la espalda
     D~            E~          F~
mi vida se unde en lagrimas de nada

coro:

              F         A           D            B
pero aqui no estoy imaginandome las mismas cosas que me destruyen
              F         A           D            B
escuche una vos, iba gritandome las mismas cosas que yo siempre supe
Suggest correction
Give kudos to tab author, rate the tab!
1 2 3 4 5
comments
print report bad tab
guest
You may want to rate the tab now too:
select rating
Wanna post a correction for this tab? Suggest correction