Oops, an error
Loading. Please wait.

Otra Historia Tab

version 1
version 1

Whole song

Interactive

3,324 views 9 this week
1 commentread comment
1 2 3 4 5
please rate
add to favorites
launch autoscroll
font size
0
reset
how to read this tab
guitar tuner
Autoscroll
slow
fast
+/-
esc
set tempo
stop
Help us to improve Ultimate-Guitar.com Take our survey!
×
Author
--------------------------------INSITE--------------------------------------|
-----------------------------OTRA HISTORIA----------------------------------|

ARTIST: INSITE
SONG: OTRA HISTORIA
AUTOR: ROBERT JR. SANTOY. MORENO.

En esta rola tambien contribuyó Erick José Gómez Santoy. Dicha rola se maneja con dos liras
awebito, sacamos la lira que destaca más. Esta echa en octavas se oye excelente. Jolines, pusimos
las notas de manera que fuera fácil para ustedes. Bueno mi mail es evi_goffin@hotmail.com
para cualquier sugerencia, comentario,ó si pueden mejorarla adelante pero creo ke no
necesario. Amerita aventarse la rola!!!!!

El tono esta en Standar
En el intro la cuerda A lleva palm mute PM...

Intro
e|-------------------------------------------------------------------------------------|
B|-------------------------------------------------------------------------------------|
G|--------------------------------------------------------------------5—-------4-------|
D|------9---9----9---9---9-------12p11—--12p11—12p11---12p11---12p11--5—(x12)--5-(x12)-|
A|--7-7----7---7----7---7-----9-9-------9------9------9-------9-------3--------3-------|
E|-------------------------------------------------------------------------------------|
   PM..    .   .    .   .     . .       .      .      .       .

Con sonido apagado:Pm
e|-----------------------------------------|
B|-----------------------------------------|
G|-----------------------------------------|
D|--9-9-9-9-9---9--------------------------|
A|-----------------------------------------|
E|--7-7-7-7-7---7--------------------------|
  PM ........

Verso 1
e|----------------------------------------------------------------------------|
B|----------------------------------------------------------------------------|
G|-12-12-12-12-12-12-12-12-11-11-11-11-11-11-11-11-11--7/11-11-11-11-11-11-11-|
D|----------------------------------------------------------------------------|
A|-10-10-10-10-10-10-10-10--9--9--9—-9--9--9--9—-9—-9--5/-9--9--9--9--9--9--9-|
E|----------------------------------------------------------------------------|

e|---------------------------------------------------------------------------|
B|---------------------------------------------------------------------------|
G|-9-9-9-9-9-9-9-9-9-9--11-11-11-11-11-11-11-11-11---------------------------|
D|---------------------------------------------------------------------------|
A|-7-7-7-7-7-7-7-7-7-7---9--9--9--9--9--9--9--9--9---------------------------|
E|---------------------------------------------------------------------------|


Pre chorus 1
e|----------------------------------------|
B|----------------------------------------|
G|----------------------------------------|
D|---9-9-9-9-9---9-9-9-9-9-----9----------|
A|----------------------------------------|
E|---7-7-7-7-7---7-7-7-7-7-----7----------|
  PM..........   .........

e|---------------------------------------------------------------------------|
B|---------------------------------------------------------------------------|
G|-9-9-9-9-9-9-9-9-9-9--11-11-11-11-11-11-11-11-11---------------------------|
D|---------------------------------------------------------------------------|
A|-7-7-7-7-7-7-7-7-7-7---9--9--9--9--9--9--9--9--9---------------------------|
E|---------------------------------------------------------------------------|

Chorus 1
e|-----------------------------------------------------------------------------|
B|-----------------------------------------------------------------------------|
G|-----12-12-12----------12-12-12----------12-12-12----------------------------|
D|--9----------------9-9---------------9--9----------------9--9----9--9-9-9-9--|
A|-----10-10-10----------10-10-10----------10-10-10----------------------------|
E|--7----------------7-7---------------7--7----------------7--7----7--7-7-7-7--|
                                                                 PM..........
Solou 1
e|---------------------------------------------------------------------------|
B|-----------7-66-7---8-77-8---11-1010-11------------------------------------|
G|---------------------------------------------------------------------------| 4 veces
D|-10-99-10------------------------------------------------------------------|
A|---------------------------------------------------------------------------|
E|---------------------------------------------------------------------------|

Repetir esto 8 veces rápidisimo
e|--------------------|
B|--12-12--15-15------|
G|--------------------|
D|--------------------|
A|--------------------|
E|--------------------|

Repetir Chorus1


Acustico:
    Cadd9     A7sus4     G        D
e|--0---------3------3-----2-------------------------------------------------|
B|--3---------3------0-----3-------------------------------------------------|
G|--0---------0------0-----2-------------------------------------------------|
D|--2---------2------0-----0-------------------------------------------------|
A|--3---------0------2-------------------------------------------------------|
E|--0---------0------3-------------------------------------------------------|

         Cadd9     A7sus4
regresa ya

         G
un dia nuevo empieza ya

            Cadd9     A7sus4
y no estas tu

         G         D
y estoy solo otra vez


Verso 2
e|------------------------------------------------------------------------------|
B|------------------------------------------------------------------------------|
G|-5-5-5-5-5-5-5-5--5-5-5-5-5-5-5-5--4/5-5-7------------------------------------| x2
D|---------------------------------------------5-5-5-5-5-5-5-5--4-4-4-4-4-4-4-4-|
A|-3-3-3-3-3-3-3-3--3-3-3-3-3-3-3-3--2/3-3-5---5-5-5-5-5-5-5-5--5-5-5-5-5-5-5-5-|
E|---------------------------------------------3-3-3-3-3-3-3-3--3-3-3-3-3-3-3-3-|


Solo 2
e|---------------------------------------------------------------------------|
B|---------------------------------------------------------------------------|
G|-19191919191919191919-17171717-1616-15-161616161616------------------------|
D|---------------------------------------------------------------------------|
A|-17171717171717171717-15151515-1414-13-141414141414------------------------|
E|---------------------------------------------------------------------------|

e|---------------------------------------------------------------------------|
B|---------------------------------------------------------------------------|
G|-17171717171717171717-191919191919191919-212121212121212121-19191919191919-|
D|---------------------------------------------------------------------------|
A|-15151515151515151515-171717171717171717-191919191919191919-17171717171717-|
E|---------------------------------------------------------------------------|

e|---------------------------------------------------------------------------|
B|---------------------------------------------------------------------------|
G|-191919191919191919-1717171717171717—161616161616161616161616161616161616--|
D|---------------------------------------------------------------------------|
A|-171717171717171717-1515151515151515-141414141414141414141414141414141414--|
E|---------------------------------------------------------------------------|

e|---------------------------------------------------------------------------|
B|---------------------------------------------------------------------------|
G|-1717171717171717-1919191919191919-212121212121212121-191919191919191919---|
D|---------------------------------------------------------------------------|
A|-1515151515151515-1717171717171717-191919191919191919-171717171717171717---|
E|---------------------------------------------------------------------------|

ó


e|---------------------------------------------------------------------------|
B|---------------------------------------------------------------------------|
G|-7777777777-55555555555-444444-3/4444444444444--5555555555555-777777777777-|
D|---------------------------------------------------------------------------|
A|---------------------------------------------------------------------------|
E|---------------------------------------------------------------------------|

e|---------------------------------------------------------------------------|
B|---------------------------------------------------------------------------|
G|-999999999-77777777777777-6/77777777777777777777777-555555555-444444444444-|
D|---------------------------------------------------------------------------|
A|---------------------------------------------------------------------------|
E|---------------------------------------------------------------------------|

e|---------------------------------------------------------------------------|
B|---------------------------------------------------------------------------|
G|-55555555555-777777777777-999999999999-777777------------------------------|
D|---------------------------------------------------------------------------|
A|---------------------------------------------------------------------------|
E|---------------------------------------------------------------------------|


Pre –Chorus 2
Y soñar….
e|---------------------------------------------------------------------------|
B|---------------------------------------------------------------------------|
G|-1212121212121212-1414141414141414-1616161616161616-14141414141414---------|
D|---------------------------------------------------------------------------|
A|-1010101010101010-1212121212121212-1414141414141414-12121212121212---------|
E|---------------------------------------------------------------------------|

e|---------------------------------------------------------------------------|
B|---------------------------------------------------------------------------|
G|-17171717-16161616---------------------------------------------------------|
D|---------------------------------------------------------------------------|
A|-15151515-14141414---------------------------------------------------------|
E|---------------------------------------------------------------------------|

e|---------------------------------------------------------------------------|
B|---------------------------------------------------------------------------|
G|-1212121212121212-1414141414141414-1616161616161616------------------------|
D|---------------------------------------------------------------------------|
A|-1010101010101010-1212121212121212-1414141414141414------------------------|
E|---------------------------------------------------------------------------|

e|---------------------------------------------------------------------------|
B|---------------------------------------------------------------------------|
G|-14141414-12121212---------------------------------------------------------|
D|---------------------------------------------------------------------------|
A|-12121212-10101010---------------------------------------------------------|
E|---------------------------------------------------------------------------|

 Ya  no caen, las estrellas ya no estan…………..
e|---------------------------------------------------------------------------|
B|-----------------------------------------------------------19191919--------|
G|-12121212-11111111-17171717-19191919-16-19191919-21212121------------------|
D|-----------------------------------------------------------16161616--------|
A|-10101010—-9-9-9-9-15151515-17171717-14-17171717-19191919------------------|
E|---------------------------------------------------------------------------|

   te las llevaste a otro lugar………………..
e|-------------------------------------------------------------------------------------|
B|-------------------------------------------------------------------------------------|
G|-21212121-1919191919191919-171717171717171717-121212121212121212-111111111111111111--|
D|-------------------------------------------------------------------------------------|
A|-19191919-1717171717171717-151515151515151515-101010101010101010-—9-9-9-9-9-9-9-9-9--|
E|-------------------------------------------------------------------------------------|


Outro
 Y aquí estoy…………
e|---------------------------------------------------------------------------|
B|---------------------------------------------------------------------------|
G|-1212121212121212-111111-999-----------------------------------------------| x2
D|---------------------------------------------------------------------------|
A|-1010101010101010—-9-9-9-777-----------------------------------------------|
E|---------------------------------------------------------------------------|

e|---------------------------------------------------------------------------|
B|---------------------------------------------------------------------------|
G|-1616161616161616--141414-121212-------------------------------------------| x2
D|---------------------------------------------------------------------------|
A|-1414141414141414--121212-101010-------------------------------------------|
E|---------------------------------------------------------------------------|

   Cuando te fuiste………….
e|----------------------------------------------------------------------------|
B|-----------------------------------19191919-20202020------------------------|
G|-17171717171717-19191919-21212121---------------------2121-19191919---------|
D|-----------------------------------16161616-17171717------------------------|
A|-15151515151515-17171717-19191919---------------------1919-17171717---------|
E|----------------------------------------------------------------------------|

Acustico final
e|------14-------14------14--------14---------14------------14----------------------|
B|----------------------------------------------------------------------------------|
G|--16-------16-------16-------16--------16---------16---------16---16--16--15------|
D|----------------------------------------------------------------------------------|
A|----------------------------------------------------------------------------------|
E|----------------------------------------------------------------------------------|

e|------14-------14------14--------14-----------------------------------------------|
B|----------------------------------------------------------------------------------|
G|--16-------16-------16-------16---------------------------------------------------|
D|----------------------------------------------------------------------------------|
A|----------------------------------------------------------------------------------|
E|----------------------------------------------------------------------------------|
Suggest correction
Give kudos to tab author, rate the tab!
1 2 3 4 5
comments
print report bad tab
1 comment total.
0 reply
Rob5 30 wrote on December 6 2007, 01:38 pm

JODER... ja en esta rola tambien contribuyó Erick Jose Gomez S.es un insitero de corazón; decearia saber sus
comentarios, si tienen alguna duda haganla saber mi mail es: evi_goffin@hotmail.com, si pueden mejorar las notas
adelante!! a mi parecer no lo necesita jajaja ahi se ven baygon!!!!

guest
You may want to rate the tab now too:
select rating
Please do not post tabs as comments. Select "correction" instead!