Oops, an error
Loading. Please wait.

Simpre Me Dejas Bass Tab

1,226 views 1 this week
no commentswrite comment
1 2 3 4 5
please rate
add to favorites
launch autoscroll
font size
0
reset
guitar tuner
Tab Pro tools
  • play this tab
  • loop segment
  • change instrument
  • show fretboard
  • metronome
Autoscroll
slow
fast
+/-
esc
set tempo
stop
Contributor
Difficulty
Tuning
novice
C G C F A D
Afinación: Drop C

Intro:

F--------------------------------|
C--------------------------------|
G-------------7-7-2-2-2-2-2-0-0--|
C-0-0-0-0-0-0--------------------|

Verso:
   Solo déjame hablar, no quieres verme
F---------------------------------------|
C---------------------------------------|
G-5-5--5~~---------2-2--2~~-0-0--0~~----|
C----------0-0--0~~---------------------|

Tú me das aire para respirar un día más
F--------------------------------------|
C--------------------------------------|
G-5-5--5~~---------2-2--2~~--0-0--0~~--|
C----------0-0--0~~--------------------|

Parece mentira que todo el mundo
De vueltas a tu alrededor..
F------------------------------|
C------------------------------|
G-5-5-5--------2-2-2--0-0-0----|
C--------0-0-0-----------------|

        Pero tuuuuu
F------------------------------|
C------------------------------|
G--5-5-5-5-5-5-----------------|
C--------------0-0-0-0-0-0-0---|

   Tú siempre me dejas…
F------------------------------|
C------------------------------|
G--2-2-2-2-2-2-2-2-2-2-2-0~~~--|
C------------------------------|

Coro:
    Yo se que sientes algo mas
F-------------------------------|
C-------------------------------|
G-----------7-7--2-2-2-2-2-0-0--|
C-0-0-0-0-0---------------------|

     Por mi…..
F-----------------------------|
C-----------------------------|
G---------7-7--2-2-2-2-2-0-0--|
C-0-0-0-0---------------------|

Perdóname…yo me resisto a perderte otra vez
F---------------------------------------------------|
C---------------------------------------------------|
G-------------------------2-2-2-2-2-0-0-0-0-0-0-0---|
C---5-5-5-5-5-5-2-2-2-2-2---------------------------|

Perdóname es que no puedo verme lejos de ti
F---------------------------------------------------|
C---------------------------------------------------|
G-------------------------2-2-2-2-2-0-0-0-0-0-0-0---|
C---5-5-5-5-5-5-2-2-2-2-2---------------------------|

Dispara bien..
F--------------------------------------------|
C--------------------------------------------|
G-----------------7-7--2-2-2-2-2-2-2-2-2-0-0-|
C-0-0-0-0-0-0-0-0----------------------------|

Mejor destrúyeme otra vez
F---------------------------------------------|
C---------------------------------------------|
G-----------------7-7-2-2-2-2-2-2-2-2-2-0-0---|
C-0-0-0-0-0-0-0-0-----------------------------|

    O déjame volver        junto a
F---------------------------------------|
C---------------------------------------|
G-----------7-7-2-2-2-2-2-2-2-2-2-0-0---|
C-0-0-0-0-0-----------------------------|

      Ti ya ven,   hoy quiero verte
F-------------------------------------|
C-------------------------------------|
G-------------7-7-2-2-2-2-2-2-2-0-0---|
C-0-0-0-0-0-0-------------------------|
                  Tu siempre me dejas...
F------------------------------------------------|
C------------------------------------------------|
G-----------------------2-2-2-2-2-0-0-0-0-0-0-0--|
C-5-5-5-5-5-5-2-2-2-2-2--------------------------|

Perdóname…yo me resisto a perderte otra vez
F------------------------------------------------|
C------------------------------------------------|
G-----------------------2-2-2-2-2-0-0-0-0-0-0-0--|
C-5-5-5-5-5-5-2-2-2-2-2--------------------------|

Perdóname es que no puedo verme lejos de ti
F-------------------------------------------------|
C-------------------------------------------------|
G-----------------------2-2-2-2-2-0-0-0-0-0-0-0---|
C-5-5-5-5-5-5-2-2-2-2-2---------------------------|

Dispara bien..
F---------------------------------------------|
C---------------------------------------------|
G-----------------7-7-2-2-2-2-2-2-2-2-2-0-0---|
C-0-0-0-0-0-0-0-0-----------------------------|

Mejor destrúyeme otra vez
F---------------------------------------------|
C---------------------------------------------|
G-----------------7-7-2-2-2-2-2-2-2-2-2-0-0---|
C-0-0-0-0-0-0-0-0-----------------------------|

O déjame volver                   junto a
F-----------------------------------------------|
C-----------------------------------------------|
G-----------------7-7-7-2-2-2-2-2-2-2-2-2-0-0---|
C-0-0-0-0-0-0-0-0-------------------------------|

    Ti  ya ven,   hoy quiero
F-----------------------------------------------|
C-----------------------------------------------|
G-----------------7-7-7-2-2-2-2-2-2-2-2-2-0-0---|
C-0-0-0-0-0-0-0-0-------------------------------|

   Verte…
F----------------------------------------|
C----------------------------------------|
G----------------------------------------|
C-0-0-0-0-0-0-0-0-0-0-0-0-0-0-0-0~~~~~~--|
comments
We did not receive enough feedback on this tab! Please rate:
print report bad tab
1 2 3 4 5
I want to post or [tab]
guest
You may want to rate the tab now too:
select rating
Please do not post tabs as comments. Select "correction" instead!