Oops, an error
Loading. Please wait.

Sola Bass Tab

version 1
version 1

Whole song

Interactive

910 views 1 this week
no commentswrite comment
1 2 3 4 5
please rate
add to favorites
launch autoscroll
font size
0
reset
guitar tuner
Autoscroll
slow
fast
+/-
esc
set tempo
stop
Help us to improve Ultimate-Guitar.com Take our survey!
×
Author
Difficulty
novice
Pues hay les ba
Intro
G|----------------------------------------------------------------|
D|----------------------------------------------------------------|
A|---5555-5555-55-------------5555-5555-55------------------------|
E|----------------777-7777-77-------------7777-7777-77------------|

Verso(x2)
G|----------------------------------------------------------------|
D|----------------------------------------------------------------|
A|----------------------------------------------------------------|
E|-33333333-55555555-7777777777777777-----------------------------|

Pre-coro
G|----------------------------------------------------------------|
D|----------------------------------------------------------------|
A|----------------------------------------------------------------|
E|-3333333333333333-----------------------------------------------|

Coro(x2)*Nota: Ls segunda vez sin el slide de el 12
G|----------------------------------------------------------------|
D|----------------------------------------------------------------|
A|-5555-5555-55------------5555-5555-55---------------------------|
E|-------------7777-7777-77------------7777-7777-77-12\-----------|

Post-coro
G|----------------------------------------------------------------|
D|----------------------------------------------------------------|
A|----------------------------------------------------------------|
E|-33-33-35--55-55-55----77-77-75-55-55-55--55555555--------------|

Segundo Verso(x2)
G|----------------------------------------------------------------|
D|----------------------------------------------------------------|
A|----------------------------------------------------------------|
E|-33333333-55555555-77777777-55555555----------------------------|


Y ya lo demas se repite lo mismo nadamas acomodenlo
dudas:nfsmw_panda@hotmail.com
Suggest correction
Give kudos to tab author, rate the tab!
1 2 3 4 5
comments
print report bad tab
guest
You may want to rate the tab now too:
select rating
Please do not post tabs as comments. Select "correction" instead!