Oops, an error
Loading. Please wait.

Sola Tab

version 1
version 1

Whole song

Interactive

3,734 views 1 this week
no commentswrite comment
1 2 3 4 5
please rate
add to favorites
launch autoscroll
font size
0
reset
how to read this tab
guitar tuner
Autoscroll
slow
fast
+/-
esc
set tempo
stop
Help us to improve Ultimate-Guitar.com Take our survey!
×
ESTE ES MI PRIMER TAB ESPERO QUE SIRVA DE ALGO LA VERDAD ES QUE NO SE MUCHO DE 
CÓMO VAYA LA CANCION EN CUANTO A LOS TIEMPOS  USTEDES LE SACAN LOS TIEMPOS.LE 
MANDO SALUDOS A MI CARNAL LUIS JAVIER Q “TOCA” EL BAJO 

INTRO 1:
GUITARRA ACUSTICA:
E|-----------------------------------------------------------------------------------|
B|-7-7-7-7-7-7-8-8-8-8-7-7-7-7-7-7-7-7-7---10-10-10-10-10-12-12-12-12-10-10-10-10-10-|
G|-x-x-x-x-x-x-x-x-x-x-x-x-x-x-x-x-x-x-x----x--x--x--x--x--x--x--x--x--x--x--x--x--x-|
D|-5-5-5-5-5-5-5-5-5-5-5-5-5-5-5-5-5-5-5----8--8--8--8--8--8--8--8--8--8--8--8--8--8-|
A|-----------------------------------------------------------------------------------|
D|-----------------------------------------------------------------------------------|

VIOLIN :
E|------10---9-------------------------------|
B|---------------10---8---7---7h8p7----------|
G|------------------------------------6-4-2--| 
D|-------------------------------------------|
A|-------------------------------------------|
D|-------------------------------------------|



-Intro 2:
AMBAS GUITARRAS:
E|------|-------------------------------------------------------------|             
B|------|-------------------------------------------------------------|       
G|------|-------------------------------------------------------------|(x2)
D|------|-------------------------------------------------------------|
A|--9-9-|--0-0--0--0-0--0--0-0--0-----9-9--9--9-9--9--9-9--9----------|
D|--9-9-|--0-0--0--0-0--0--0-0--0-----9-9--9--9-9--9--9-9--9----------|
PM  * *
                                      
VIOLIN: 
E|------10---9-------------------------------|
B|---------------10---8---7---8---7----------|
G|--7-7----7---7----7---7---7---7------------| (x4)
D|-------------------------------------------|
A|-------------------------------------------|
D|-------------------------------------------|

-Verso
No entiendo por qué te vas de mi...

Ambas guitarras:
E|--------------------------------------------------|
B|--------------------------------------------------|
G|--------------------------------------------------|
D|--------------------------------------------------|
A|-5-5-5-5-5-5-5-5-5-5-5-5--7-7-7-7-7-7-7-7-7-7-7-7-|
D|-5-5-5-5-5-5-5-5-5-5-5-5--7-7-7-7-7-7-7-7-7-7-7-7-|
                                                       (x2)
E|--------------------------------------------------|
B|--------------------------------------------------|
G|--------------------------------------------------|
D|--------------------------------------------------|
A|-9-9-9-9-9-9-9-9-9-9-9-9-9-9-9-9-9-9-9-9-9-9-9-9--|
D|-9-9-9-9-9-9-9-9-9-9-9-9-9-9-9-9-9-9-9-9-9-9-9-9--|
 
Nada cambia ... 
Guitarra 1:
E|---------------------------------------------------------------|
B|------3-----3-----3-----3-----3-----3-----3-----3-----3--------|
G|--0-2---0-2---0-2---0-2---0-2---0-2---0-2---0-2---0-2---0------|
D|---------------------------------------------------------------|
A|----------------------------------------------------------5-5--|
D|----------------------------------------------------------5-5--|
PM                                                          * *

Guitarra 2:
E|----------------------------------------------------------|
B|----------------------------------------------------------|
G|----------------------------------------------------------|
D|----------------------------------------------------------|
A|-5-5-5-5-5-5-5-5-5-5-5-5-5-5-5-5-5-5-5-5-5-5-5-5-5-5--5-5-|
D|-5-5-5-5-5-5-5-5-5-5-5-5-5-5-5-5-5-5-5-5-5-5-5-5-5-5--5-5-|
PM                                                      * *
  -y mi vida sin ti-


-Coro 
y estas sola...
Ambas guitarras:
E|---------------------------------------------------------|
B|---------------------------------------------------------|
G|---------------------------------------------------------|
D|---------------------------------------------------------|
A|-0-0--0--0-0--0--0-0--0--9-9--9--9-9--9--9-9--9----------|
D|-0-0--0--0-0--0--0-0--0--9-9--9--9-9--9--9-9--9----------|
                                                             (x2)
E|---------------------------------------------------------|
B|---------------------------------------------------------|
G|---------------------------------------------------------|
D|---------------------------------------------------------|
A|-0--0--0-0--0--0-0--0--9-9-9-9-9--9-9-9-9-9--12/---------|
D|-0--0--0-0--0--0-0--0--9-9-9-9-9--9-9-9-9-9--12/---------|
 
 

-Puente 1:
Guitarra 1:
E|------------------------------------------------------------|
B|----------------------------------------------------7-7-9-9-|
G|------7-7-7-7-------7-7-9-9-----------7-7-7-7-------x-x-x-x-|
D|------x-x-x-x-------x-x-x-x-----------x-x-x-x-------5-5-7-7-|
A|-5-5--5-5-5-5--5-5--5-5-7-7--5-5-7-7--5-5-5-5--7-7----------|
D|-5-5-----------5-5-----------5-5-7-7-----------7-7----------|

E|----------------------------------------------|
B|----------------------------------------------|
G|-----11-11------11-11-11-11------11-11-12-12--|
D|------x--x-------x--x--x--x-------x--x--x--x--|
A|-7-7--9--9--9-9--9--9--9--9--9-9--9--9-10-10--|
D|-7-7--------9-9--------------9-9--------------|

E|--------------------------------|
B|--------------------------------|
G|----------7-7-7-7-------7-6-6-6-|
D|----------x-x-x-x-------x-x-x-x-|
A|-9-9-7-7--5-5-5-5--7-7--5-4-4-4-|
D|-9-9-7-7-----------7-7----------|

Guitarra 2:

E|---------------------------------------------------------|
B|---------------------------------------------------------|
G|-----11-11-11-11------11-11-12-12----------11-11-11-11---|
D|------x--x--x--x-------x--x--x--x-----------x--x--x--x---|
A|-5-5--9--9--9--9--5-5--9--9-10-10--5-5-7-7--9--9--9--9---|
D|-5-5--------------5-5--------------5-5-7-7---------------|

E|-----------------------------------------------------------------|
B|-----------------------------------------------------------------|
G|-----11-11-12-12-------14-14-------14-14-14-14-------14-14-16-16-|
D|------x--x--x--x--------x--x--------x--x--x--x--------x--x--x--x-|
A|-7-7--9--9-10-10--7-7--12-12--9-9--12-12-12-12--9-9--12-12-14-14-|
D|-7-7--------------7-7---------9-9---------------9-9--------------|

E|------------------------------------|
B|------------------------------------|
G|---------11-11-11-11------11-11-11--|
D|----------x--x--x--x-------x-x-x-x--|
A|-9-9-7-7--9--9--9--9--7-7--9-7-7-7--|
D|-9-9-7-7--------------7-7-----------|





-Verso 2
Guitarra 1:(x2)
E|---------------------------------------------------|
B|-----------------------5-5-------------------------|
G|-----7-7-7-7------7-7-----------7-7--------7-7-7-7-|
D|-5-5----------5-5-----------5-5-------7-7----------|
A|---------------------------------------------------|
D|---------------------------------------------------|

E|-----------------------------------------------------------|
B|-----------------------------------------------------------|
G|------7-7-9-9------11-11------11-11-11-11------11-11-12-12-|
D|-7-7-----------7-7-------9-9---------------9-9-------------|
A|-----------------------------------------------------------|
D|-----------------------------------------------------------|

E|-----------------------------------------------------------|
B|-----------------------------------------------------------|
G|------7-7------7-7-7-7--------7-6-6-6------7---------------|
D|-9-9------7-7------------7-7-----------7-7-----------------|
A|-----------------------------------------------------------|
D|-----------------------------------------------------------|

Guitarra 2: (x2)
E|-------------------------------------------------|
B|------7-7-7-7------7-7-8-8------7-7------7-7-7-7-|
G|-------------------------------------------------|
D|--5-5----------5-5----------5-5------7-7---------|
A|-------------------------------------------------|
D|-------------------------------------------------|

E|----------------------------------------------------------|
B|-----7-7-8-8------10-10------10-10-10-10------10-10-12-12-|
G|----------------------------------------------------------|
D|-7-7----------7-7--------9-9--------------9-9-------------|
A|----------------------------------------------------------|
D|----------------------------------------------------------|

E|-----------------------------------------------|
B|-----7-7------7-7-7-7------7-------------7-----|
G|------------------------------9-9-9------------|
D|-9-9-----7-7-----------7-7-----------7-7-------|
A|-----------------------------------------------|
D|-----------------------------------------------|


Solo pienso en que...               Solo pienso en que...
E|---------------------------------|----------------------|
B|---------------------------------|----------------------|
G|---------------------------------|----------------------|
D|---------------------------------|----------------------|
A|--5-5-5-5-5-5”---5/9--9-9-9-9-9--|--5””—-5/9”----9””----|
D|--5-5-5-5-5-5”---5/9--9-9-9-9-9--|--5””—-5/9”----9””----|

VIOLIN: 
E|--9-10-----------------9--12-10-9------------------|
B|-------10-8-7—-3”-------10-------------------------|
G|---------------------------------------------------|
D|---------------------------------------------------|
A|---------------------------------------------------|
D|---------------------------------------------------|


E|--9-10---------------------------------------------|
B|-------10-8-7—-3-3h5-------------------------------|
G|---------------------------------------------------|
D|---------------------------------------------------|
A|---------------------------------------------------|
D|---------------------------------------------------|


  
-Puente (parte A)

AMBAS GUITARRAS:
(No estoy seguro de los tiempos así que oigan la canción 
E|-------------------------------------------|
B|-------------------------------------------|
G|-------------------------------------------|
D|-------------------------------------------|
A|-5-5-5-5-5-5-5-5---5-5-5-5-5-5-5-5-5-5-5-5-|
D|-5-5-5-5-5-5-5-5---5-5-5-5-5-5-5-5-5-5-5-5-|

E|--------------------------------------------|
B|--------------------------------------------|
G|--------------------------------------------|
D|--------------------------------------------|
A|-7--9-9-9-9-9-9-9-9-9-9-9-9-9-9-9-9-9-9-9-9-|
D|-7--9-9-9-9-9-9-9-9-9-9-9-9-9-9-9-9-9-9-9-9-|

E|--------------------------------------------|
B|--------------------------------------------|
G|--------------------------------------------|
D|--------------------------------------------|
A|-12-12-12-12-12-12-12-12--7--5-5-5-5-5-5-5--|
D|-12-12-12-12-12-12-12-12--7--5-5-5-5-5-5-5--|

VIOLIN: (MIN. 2:37)
E|-------10------------------9---------|------------------------------|
B|----10----10—(x4)-------10---10-(x4)-|------8--------------7--------|
G|--7-------------------7--------------|----7---7-(X4)-----7---7-(X4)-|    
D|-------------------------------------|-10-------------10------------|   x2
A|-------------------------------------|------------------------------|
D|-------------------------------------|------------------------------|


PUENTE: (PARTE B)

Guitarra 1:
E|-------------------------------------------|
B|-------------------------------------------|
G|--0-12-14-0-18-19-0-12-14-0-11-12-0-12-11--|(x8)
D|-------------------------------------------|
A|-------------------------------------------|                             
D|-------------------------------------------|



GUITARRA 2:
E|------------12-14--------------------------|
B|--0-12-14-0------0-12-14-0-11-12-0-12-11---|
G|-------------------------------------------|(ENTRA EN LA CUARTA VEZ)
D|-------------------------------------------|
A|-------------------------------------------|
D|-------------------------------------------|



-Coro

y estas sola...
Ambas guitarras:
E|---------------------------------------------------------|
B|---------------------------------------------------------|
G|---------------------------------------------------------|
D|---------------------------------------------------------|
A|-0-0--0--0-0--0--0-0--0--9-9--9--9-9--9--9-9--9----------|
D|-0-0--0--0-0--0--0-0--0--9-9--9--9-9--9--9-9--9----------|
                                                             (x2)
E|---------------------------------------------------------|
B|---------------------------------------------------------|
G|-7-7--7--7-7--7-7--7-------------------------------------|
D|-x-x--x--x-x--x-x--x-------------------------------------|
A|-5-5—-5--5-5--5-5--5--9-9-9-9-9--9-9-9-9-9--12/----------|
D|----------------------9-9-9-9-9--9-9-9-9-9--12/----------|



Guitarra 2 :
ENTRA EN LA SEGUNDA VEZ
E|-------------------------------------------------------|
B|-------------------------------------------------------|
G|-7-7--7--7-7--7-7—7/9--11-11-11-11-11-11/12------------|
D|-x-x--x--x-x--x-x—x/x---x-x---x--x--x--x/-x------------|
A|-5-5—-5--5-5--5-5—5/7---9-9---9--9--9—-9/10------------|
D|-------------------------------------------------------|


E|-------------------------------------------------------|
B|-------------------------------------------------------|
G|-14-14-14-14—-14-14/12--11-11-11-11-11-11/9------------|
D|--x--x--x--x---x—-x/-x---x-x---x--x--x—-x/x------------|
A|-12-12-12-12--12-12/10---9-9---9--9--9—-9/7------------|
D|-------------------------------------------------------|



TERMINAN ASI:

GUITARRA 1:
E|-------------|
B|-------------|
G|-------------|
D|-------------|
A|-0-----------|
A|-0-----------|

GUITARRA 2:
E|-------------|
B|-------------|
G|--7”---------|
D|--X”---------|
A|--5”---------|
A|-------------|

Es todo… gracias a mi hermano José Alfredo que me ayudo con la segunda guitarra…
Saludos a la estaca ampliación y al cetis 109 tambien saludos a chucho que andaba 
de arrimado cuando subi el tab
Dudas, comentarios y mentadas de madre al correo unknown_msn@hotmail.com o tal vez 
no existe a si ni modo.
Suggest correction
What's this?
You can suggest a correction to this tab. Community and Mods will review your correction and vote to approve or reject it.
comments
We did not receive enough feedback on this tab! Please rate:
print report bad tab
1 2 3 4 5
guest
You may want to rate the tab now too:
select rating
Please do not post tabs as comments. Select "correction" instead!