Oops, an error
Loading. Please wait.

Soledad Tab

by Insite
16 views 1 this week
no commentswrite comment
1 2 3 4 5
3 more votes to show rating
add to favorites
launch autoscroll
font size
0
reset
how to read this tab
guitar tuner
Autoscroll
slow
fast
+/-
esc
set tempo
stop
weno esta cancioncita esta mui bueno aunq parece q la hubieran
grabado en una casa nada mas...pero igual esta bien feeling
cualkier duda mi correo jsua_14@hotm...

Soledad (D)
Insite

Acordes      654321
             EADGBe
Dsus2/B      x20230
Asus4        x02230
G6           320030
D/B          x20232
D/F#         200232
G            320033
Bm7          x24232

Intro:

1º guitarra

  | Dsus2/B             |    Asus4            | G6                  |

e -------0---------0----|------0--------0-----|------0--------0-----
B ----3---3-3---3---3-3-|---3---3-3---3---3-3-|---3---3-3---3---3-3-
G ---2-2---2---2-2---2--|--2-2---2---2-2---2--|--0-0---0---0-0---0--
D ----------------------|---------------------|---------------------
A -2----------2---------|-0---------0---------|---------------------
E ----------------------|---------------------|-3---------3---------

 | G6                  |

e ------0--------0-----
B ---3---3-3---3---3-3-
G --0-0---0---0-0---0--
D ---------------------
A ---------------------
E -3---------3---------

  | Dsus2/B             | Asus4               |   G6                |G6 |

e -------2---------2----|------0--------2-----|------3--------3-----|-0-|
B ----3----3----3----3--|---3----3----3----3--|---3----3----3----3--|-3-|
G ---2-2--2-2--2-2--2-2-|--2-2--2-2--2-2--2-2-|--0-0--0-0--0-0--0-0-|-0-|
D ----------------------|---------------------|---------------------|-0-|
A -2----------2---------|-0---------0---------|---------------------|-2-|
E ----------------------|---------------------|-3---------3---------|-3-|
                                                               (razgueo)
Riff 1

e ---3-3-3-3/2-2-2-2/0-0-0-0-----|
B ---3-3-3-3/3-3-3-3/3-3-3---3-3-|
G ----------------------------2--| x7 veces
D -------------------------------|
A -------------------------------|
E -------------------------------|

Razgueo:
 | Dsus2 | Asus4 |  G6   |  G6      | Dsus2 | Asus4 |  G6   |  G6      |

e ---0---|---0---|-------|----------|---0---|---0---|-------|-----------
B ---3---|---3---|-------|----------|---3---|---3---|-------|-----------
G ---2---|---2---|--6--7-|-7/9--9/7-|---2---|---2---|--6--7-|-7/9--9/11-
D ---0---|---2---|--x--x-|-x-x--x-x-|---0---|---2---|--x--x-|-x-x--x-x--
A -------|---0---|--4--5-|-5/7--7/5-|-------|---0---|--4--5-|-5/7--7/9--
E -------|-------|-------|----------|-------|-------|-------|-----------

Verso

Dsus2     Asus4   G6                 D/B
    No me llevo bien.. no me llevo bien..
     Asus4  G6
con mi soledad...
D/B      Asus4          G6
    te extraño mas que nunca amor..
D/B     Asus4         G6 (razgueo entre cortado)(escuchándola la sakan)
    y tu ya      no estas!!

Bm7  D/F#   G       D/B            G
   Como   fue que pasó no entiendo como sucedió
Bm7 D/F#   G              D/B        G                D/B   G6
   si me amabas tanto como yo!  no debiste olvidarme amor...

Dsus2   Asus4  G6                 D/B
   Desearía estar...  desearía estar!!
   Asus4     G6
Contigo una vez mas..
D/B      Asus4     G6
   Para así no perderte jamás..
D/B     Asus4           G6
   Y vivir contigo toda una eternidad

Bm7  D/F#   G       D/B            G
   Como   fue que pasó no entiendo como sucedió
Bm7 D/F#   G              D/B        G                D/B   G6
   si me amabas tanto como yo!  no debiste olvidarme amor...ohh

Dsus2        Asus4      G6                       Dsus2
    Si es hay algo que sientas ven y dilo  por favor!!
      Asus4         G6                    Dsus2
Si hay algo que sientas ven y dilo  por favor!!
       Asus4    | D/B   | Asus4 | G6  | G6 | D/B  | Asus4 | G6 | G6 |
Pues te extraño amor..                                         |1 razgueo
                                                               Hacia abajo
Outro:
                                   G6

e ---3-3-3-3/2-2-2-2/0-0-0-0-----|--0--|
B ---3-3-3-3/3-3-3-3/3-3-3---3-3-|--3--|
G ----------------------------2--|--0--|
D -------------------------------|--0--|
A ---------x7 veces -------------|--2--|
E -------------------------------|--3--|
                                 razgueo


eso es todo...chaufff cuidenceeepp
Suggest correction
Give kudos to tab author, rate the tab!
1 2 3 4 5
comments
print report bad tab
guest
Wanna post a correction for this tab? Suggest correction