Oops, an error
Loading. Please wait.

Te Echo De Menos Tab

67 views 1 this week
no commentswrite comment
1 2 3 4 5
3 more votes to show rating
add to favorites
launch autoscroll
font size
0
reset
how to read this tab
guitar tuner
Autoscroll
slow
fast
+/-
esc
set tempo
stop
Help us to improve Ultimate-Guitar.com Take our survey!
×
weno aki otra cancioncita feeling de insite
spero les gusta cualkier duda mi correo es
jsua_14@hotm...ahi va

Te hecho de Menos (C)
Insite

Acordes:        654321  <-- Nº de cuerdas
                EADGBe          (la 1º es la mas delgada
Cadd11          033010           xciakaso jejej)
Fadd9           103020
Cmaj7add11      033000
C11(no7)        033030

Intro:

    C

e --x--x--x--x----
B --x--x--x--x----
G --5--x--x--x----
D --5--x--x--x----
A --3--x--x--x----
E --x--x--x--x----

C              Cadd11
  Juré que ya te había conocido
           C
Pero ahora me doy cuenta de que no
 Cadd11           (silencio)
Si me rompiste el corazón

Riff 1

   C

e -------------------
B -5/6---------------
G -x-x--4/5--4/5-----   acompaña todo
D -2/3--x-x--x-x-----     el verso
A ------2/3--2/3-----
E -------------------


Verso: (riff 1)

C               Cadd11
  Juré que ya te había conocido
          C
Pero que tonto fui al volverme a hacer
Cadd11                        FAdd9 (riff 2/riff 3)
  La ilusión de tenerte junto a mi
                     FAdd9
Y de mi vida atarla a ti   (atarla a ti)

Riff 2 y Riff 3 (van al mismo tiempo)

(Riff 2)

---------------|---------------|---------------|---0---|
-----1-1-------|------1--------|------1--------|---1---|
----0-0---0-0--|----0----0-0---|----0----0-0---|---0---|
-----------3---|---3------3----|---3------3----|---3---|
---------------|---------------|---------------|---0---|
--1------------|-1-------------|-1-------------|---1---|

(Riff 3)

---------------|------8--------|------8--------|---8---|
--5/6----------|---------------|---------------|---8---|
--x-x----------|-9-10----------|-9-10----------|---9---|
--2/3----------|---------------|---------------|---10--|
---------------|---------------|---------------|-------|
---------------|---------------|---------------|-------|

Riff 4

    Cadd11      Cmaj7add11   Cadd11       C11(no7)

e --8-8-8-8-8-|--7-7-7-7-7-|--8-8-8-8-8-|--10-10-10-10-10---|-
B --8-8-8-8-8-|--8-8-8-8-8-|--8-8-8-8-8-|---8--8--8--8--8---|-
G --9-9-9-9-9-|--9-9-9-9-9-|--9-9-9-9-9-|---9--9--9--9--9---|-
D ------------|------------|------------|-------------------|-
A ------------|------------|------------|-------------------|-
E ------------|------------|------------|-------------------|-

Coro: (riff 4)

C    Cmaj7add11                  C
  Tal   ves    todo esto fue un sueño
         C11(no7)                       C
Pero te me fuiste y esta ves si era en serio
  Cmaj7add11             C                   C11(no7)
Estaré     mas noches en velo esperando tu llamada
    C   Cmaj7add11             C    C11(no7)
Al menos   uohoh  te hecho de menos
C  Cmaj7add11                C    Cadd11
              (Te hecho de menos)

Riff 5

e --8-8-8-8--|-7-7-7-7--|-10-10-10-10--|-8-8-8-7--|
B ---8-8-8-8-|--8-8-8-8-|---8--8--8--8-|--8-8-8-8-|
G -----------|----------|--------------|----------|  x2 veces
D -----------|----------|--------------|----------|   y luego
A -----------|----------|--------------|----------|  el riff 4
E -----------|----------|--------------|----------|

Puente: (riff 5)

Cadd11      Cmaj7add11  Cadd11  Cmaj7add11
     La Media   noche se  acerca
     Am7              C
Solo han pasado unas horas
        Cadd11           Cmaj7add11
Y he olvidado  tu voz por completo
Cadd11 Cmaj7add11 C
  Ayú...dame      a recordarla denuevo
    Cadd11   Cmaj7add11   Cadd11       C11(no7)
Ayúdame   (ayúdame)      ayúdameeehh (ayúdame)

Solo:

    Cadd11      Cmaj7add11   Cadd11       Cmaj7add11    C11(no7)

e --8-8-8-8-8-|--7-7-7-7-7-|--8-8-8-8-8-|--7-7-7-7-7-|-10-10-10-10-10-
B --8-8-8-8-8-|--8-8-8-8-8-|--8-8-8-8-8-|--8-8-8-8-8-|--8--8--8--8--8-
G --9-9-9-9-9-|--9-9-9-9-9-|--9-9-9-9-9-|--9-9-9-9-9-|--9--9--9--9--9-
D ------------|------------|------------|------------|----------------
A ------------|------------|------------|------------|----------------
E ------------|------------|------------|------------|----------------


C    Cmaj7add11                  C
  Tal   ves    todo esto fue un sueño
         C11(no7)                       C
Pero te me fuiste y esta ves si era en serio
  Cmaj7add11             C                   C11(no7)
Estaré     mas noches en velo esperando tu llamada
    C   Cmaj7add11             C    C11(no7)
Al menos   uohoh  te hecho de menos
C  Cmaj7add11                C    Cadd11  C
              (Te hecho de menos)


weno espero les guste...
ahh!! y no se preocupen x los acordes
los nombres son complicados pero las posiciones no
solo varian en un par de dedos a lo muxo
mas dificil se me hizo a mi encontrar
los nombres jajaja
pero weno ahi stá
escuchenla bien y sakenla q esta facil
eso es todo creo..jajaja
chaufffff
Suggest correction
Give kudos to tab author, rate the tab!
1 2 3 4 5
comments
print report bad tab
guest
You may want to rate the tab now too:
select rating
Wanna post a correction for this tab? Suggest correction