Oops, an error
Loading. Please wait.

Te Pido Me Olvides Tab

1,117 views 3 this week
no commentswrite comment
1 2 3 4 5
please rate
add to favorites
launch autoscroll
font size
0
reset
how to read this tab
guitar tuner
Tab Pro tools
  • play this tab
  • loop segment
  • change instrument
  • show fretboard
  • metronome
×
Best way to learn
"Te Pido Me Olvides"
Autoscroll
slow
fast
+/-
esc
set tempo
stop
Contributor
Te Pido Me Olvides

Intro: (las guitarras suenan en el tiempo mostrado)

2º guitarra

e -x-x-x-x-|-----------------|-----------------|-----------------------|
B -x-x-x-x-|-----------------|-----------------|-----1------1---|------|
G -x-x-x-x-|-----------------|-----------------|-------0------0-|------|
D -x-x-x-x-|-----5-----5---5-|-----5-----5---5-|----------------|------|
A -x-x-x-x-|---3---3-----3---|---3---3-----3---|---3------3-----|------|
D -x-x-x-x-|-0-------0-------|-2-------2-------|-3-------3------|------|

1º guitarra

e ---------|-----------------|-------------12--|------------12---------|
B ---------|-----------------|-13--------------|-13-------------|------|
G ---------|-----------------|-----------------|----------------|------|
D ---------|-----------------|-----------------|----------------|------|
A ---------|-----------------|-----------------|----------------|------|
D ---------|-----------------|-----------------|----------------|------|


2º guitarra
                                                              rasgueo
e -------------|-----------------|-----------------|---0-----0---|-0-|
B ----1----1-1-|-----------------|-----------------|-----1-----1-|-1-|
G -----0----0--|-----------------|-----------------|-------------|-0-|
D -------------|-----5-----5---5-|-----5-----5---5-|-------------|-2-|
A --3----------|---3---3-----3---|---3---3-----3---|--3-----3----|-3-|
D -3-----3-----|-0-------0-------|-2-------2-------|-3-----3-----|---|

1º guitarra

e ---------12--|------------12---|-------------12--|----------12-|---|
B -13----------|-13--------------|-13--------------|-13----------|-13|
G -------12----|--------12-------|---------12------|-------12----|---|
D -------------|-----------------|-----------------|-------------|---|
A -------------|-----------------|-----------------|-------------|---|
D -------------|-----------------|-----------------|-------------|---|


    C
Te busco en mis recuerdos

Pero aun no estas
    Am
Por q será

     Fmaj7                      Am
Es q acaso tu promesa se perdió

Y hoy ya no existo
        C
O El dejarte ir
                        Am            C
No es tan fácil como pensé q iba a estar

Despiértame eh eh
                         Am             C
Y dime que existo que de ti yo no me he ido
        Am
Pues yo no
          C
No puedo más

   C             Am
Jugaste a no volver
       C
Y hoy pides de mi
          Fmaj7                 C
Lo que un día pudo ser y al final
        Am        C
Sigo aquí    sin ti

         C
Te arrepientes
    Am      C
El dejarte ir

e --13-13-13-12-12-12------|
B --13-13-13-13-13-13------|
G -------------------------|
D -------------------------|
A -------------------------|
D -------------------------|

          Fmaj7          C              Am
No es tan fácil como pensé   q iba a estar

e --13-13-13-12-12-12------|
B --13-13-13-13-13-13------|
G -------------------------|
D -------------------------|
A -------------------------|
D -------------------------|
          C
Despiértame eh eh

e --13-13-13-12-12-12------|
B --13-13-13-13-13-13------|
G -------------------------|
D -------------------------|
A -------------------------|
D -------------------------|

  Am                    Fmaj7
Y dime que existo que de ti yo no me ido

e --13-13-13-12-12-12------|
B --13-13-13-13-13-13------|
G -------------------------|
D -------------------------|
A -------------------------|
D -------------------------|

         Am
Pues yo no

e --13-13-13-12-12-12------|
B --13-13-13-13-13-13------|
G -------------------------|
D -------------------------|
A -------------------------|
D -------------------------|

          C
No puedo máaaaaaaas

e --12-12-12-12-12-12-12---|
B --13---------------------|
G -------------------------|
D -------------------------|
A -------------------------|
D -------------------------|

Solo:

   C
e -13p12---13p12---13p12----------15p12--13p12—13p12----------|
B ------13------13------13-13-13-------13-----13----13-13-13--|
G ------------------------------------------------------------|
D ------------------------------------------------------------|
A ------------------------------------------------------------|
D ------------------------------------------------------------|

e -12-----12-12-12----------------12-12-12-----------------|
B ---13-----------13--12-12-12------------13--12-----------|
G -----12-----------12---------12-----------12-------------|
D ---------------------------------------------------------|
A ---------------------------------------------------------|
D ---------------------------------------------------------|
                                                        Am
e -13p12---15p12---13p12---12---------13p12--15p12--13p12-------|
B ------13------13------13-----------------13-----13-----13-13--|
G --------------------------------------------------------------|
D --------------------------------------------------------------|
A --------------------------------------------------------------|
D --------------------------------------------------------------|

 Am                     C
Y Ahora que   ya no estas

Te pido me olvides
Am       Fmaj7         C
Y ahora que   ya no estas

Te pido me olvides


Am       Fmaj7       C
Y ahora que   ya te vas                 (Te pido me olvides)

e -------13p12---13p12---13p12------------12-12-12-12-12------|
B -------------13------13------13-13-13-----------------------|
G ------------------------------------------------------------|
D ------------------------------------------------------------|
A ------------------------------------------------------------|
D ------------------------------------------------------------|

Am       Fmaj7       C                             Am C Fmaj7 C Fmaj7
Y ahora que   ya te vas    (Hoy Te pido me olvides)

Acordes        DADGBe

Am             x02210
Fmaj7          x03210
C              x32010
comments
We did not receive enough feedback on this tab! Please rate:
print report bad tab
1 2 3 4 5
I want to post or [tab]
guest
You may want to rate the tab now too:
select rating
Please do not post tabs as comments. Select "correction" instead!