Oops, an error
Loading. Please wait.

In The Groves Of Death Bass Tab

version 1
version 1

Whole song

Interactive

783 views 3 this week
no commentswrite comment
1 2 3 4 5
please rate
add to favorites
launch autoscroll
font size
0
reset
guitar tuner
Tab Pro tools
  • play this tab
  • loop segment
  • change instrument
  • show fretboard
  • metronome
Autoscroll
slow
fast
+/-
esc
set tempo
stop
Contributor
---------------------------------------------------------------------------
		     IN THE GROVES OF DEATH - Insomnium
---------------------------------------------------------------------------

Artist: Insomnium
Artist's official website: http://www.insomnium.net/

Tabbed By : Hurm

Tuning: standard 5-string (BEADG)
Note: listen close for timings and measures! Some are given at the end.

Bass comes in at 00:37
G|----------------------------------------------------|
D|----------------------------------------------------|
A|-------------------00000000000000003333333333333333-|
E|-9\1111111111111111---------------------------------|
B|----------------------------------------------------|

G|------------------------------------------------------------------|
D|------------------------------------------------------------------|
A|-------------------------------------------------3333333333333333-| 2x
E|-----------------11111111111111115555555555555555-----------------|
B|-3333333333333333-------------------------------------------------|

Verse
G|------------------------------------------------------------------|
D|------------------------------------------------------------------|
A|---------33333333------------------------33333333--------1111-----| 2x
E|-----------------3333333333333333----------------33333333----1111-|
B|-33333333------------------------33333333-------------------------|


G|------------------------------------------------------------------|
D|------------------------------------------------------------------|
A|------------------------------------------------------------------|
E|-555555555555555555555555555555550000000000000000------------3333-|
B|-------------------------------------------------333333333333-----|

G|------------------------------------------------------------------|
D|------------------------------------------------------------------|
A|-------------------------33333333---------------------------------|
E|-555555555555555555555555--------0000000000000000------------3333-|
B|-------------------------------------------------333333333333-----|

G|------------------------------------------------------------------|
D|------------------------------------------------------------------|
A|---------------------------------0~----------0~--3~---------------| 2x
E|-----------------1~-----------------------------------------------|
B|-3~---------------------------------------------------------------|
Verse
G|------------------------------------------------------------------|
D|------------------------------------------------------------------|
A|---------33333333------------------------33333333--------1111-----| 2x
E|-----------------3333333333333333----------------33333333----1111-|
B|-33333333------------------------33333333-------------------------|

G|------------------------------------------------------------------|
D|------------------------------------------------------------------|
A|------------------------------------------------------------------|
E|-555555555555555555555555555555550000000000000000------------3333-|
B|-------------------------------------------------333333333333-----|

G|------------------------------------------------------------------|
D|------------------------------------------------------------------|
A|-------------------------33333333---------------------------------|
E|-555555555555555555555555--------0000000000000000------------3333-|
B|-------------------------------------------------333333333333-----|


G|------------------------------------------------------------------|
D|------------------------------------------------------------------|
A|-------------------------------------------------3333333333333333-|
E|-----------------11111111111111115555555555555555-----------------|
B|-3333333333333333-------------------------------------------------|

G|------------------------------------------------------------------|
D|------------------------------------------------------------------|
A|-------------------------------------------------3~----33~-3-3333-|
E|-----------------1~----11~-1~----5~----55~-5~---------------------|
B|-3~----33~-3~-----------------------------------------------------|


G|------------------------------------------------------------------|
D|------------------------------------------------------------------|
A|------------------------------------------------------------------|
E|------------------------------------------------------------------|
B|-3~~--------------------------------------------------------------|

G|---------------------------------(4:34)---------------------------|
D|------------------------------------------------------------------|
A|------------------------------------------------------------------|
E|---------------------------------6~------5~---\1~-----------------|
B|-------------------------------------------------3~---------------|

G|-(4:38)-----------------------------------------------------------|
D|------------------------------------------------------------------|
A|-----5~--5~----------5~--5~----------5~--5~----58-----------------|
E|-------58--------------58--------------58--------6--6--685--5-----|
B|-3~--------------3~------------6~3~----------------------------6--|

G|------------------------------------------------------------------|
D|------------------------------------------------------------------|
A|-----5~--5~----58----5~--5~----------5~--5~----58-----------------|
E|-------58--------------58-----\1~------58--------6--6--685--5-----|
B|-3~--------------3~--------------3~----------------------------6--|

G|------------------------------------------------------------------|
D|----------------3-------------------------------------------------|
A|-----5~--5~----5-----5---5~----------5~--5~----58-----------------|
E|-------58--------------58-----\1~------58--------6--6--685--5-----|
B|-3~--------------3~---3----------3~----------------------------6--|

G|-(5:20)-----------------------------------|
D|------------------------------------------|
A|-------------------------------33-3-3-----| 4x
E|-----------------5-5-----------------3-3--|
B|-33-3-33-3-33-3-3----33-3-33-3------------|

G|------------------------------------------|
D|------------------------------------------|
A|-1--1--1-1-----------1--1--1-1------------|
E|-----------3--3--5-5-----------3--3--5555-|
B|------------------------------------------|

G|-(6:04, 5/8 measure!)---------------------|
D|------------------------------------------|
A|-------------------------------33-3-3-----| 4x
E|-----------------5-5-----------------3-3--|
B|-33-3-33-3-33-3-3----33-3-33-3------------|

G|-(6:40)---------------------------------------|
D|----------------------------------------------|
A|----------------------------------------------|
E|-66666666663333335555666666666666333333555555-|
B|----------------------------------------------|

G|-(6:49, 6/8 measure!)-----------------------------|
D|--------------------------------------------------|
A|--------------------------------------------------| 2x
E|-------------555555333333----------55------555555-|
B|-333333333333------------3333333333--555555-------|

G|-(7:11)-------------------------------------------|
D|--------------------------------------------------|
A|--------------------------------------------------|
E|-<---rest--->555555333333----------55------555555-|
B|-------------------------3333333333--555555-------|

G|--------------------------------------------------|
D|--------------------------------------------------|
A|--------------------------------------------------|
E|-------------555555333333----------55------555555-|
B|-333333333333------------3333333333--555555-------|

G|-(7:32)-------------------------------------------|
D|--------------------------------------------------|
A|-----------------33----------------------------33-|
E|-------------5555--333355----------55------5555---|
B|-333333333333------------3333333333--555555-------|

G|--------------------------------------------------|
D|--------------------------------------------------|
A|-----------------33-------------------------------|
E|-------------5555--333355----------55------555555-|
B|-333333333333------------3333333333--555555-------|

G|-(7:53)----------------------------------------------|
D|-----------------------------------------------------|
A|---------------------------------333333/151515151515-|
E|-66666666663333335555666666666666--------------------|
B|-----------------------------------------------------|

G|--------------------------------------------------|
D|--------------------------------------------------|
A|-----------------------------------------------33-|
E|-------------555555333356----------55------5555---|
B|-333333333333------------3333333333--555555-------|

G|--------------------------------------------------|
D|--------------------------------------------------|
A|-----------------33-------------------------------|
E|-------------5555--333356----------55------555555-|
B|-333333333333------------3333333333--555555-------|

Ending
G|-(8:25)---------------------------------------|
D|----------------------------------------------|
A|----------------------------------------------|
E|-66666666663333335555666666666666333333333333-|
B|----------------------------------------------|

| /  slide up
| \  slide down
| ~  let ring

===========================================================================
comments
We did not receive enough feedback on this tab! Please rate:
print report bad tab
1 2 3 4 5
I want to post or [tab]
guest
You may want to rate the tab now too:
select rating
Please do not post tabs as comments. Select "correction" instead!