Oops, an error
Loading. Please wait.

Mortal Share Tab

version 1
version 1

Whole song

Interactive

5,234 views 12 this week
1 commentread comment
1 2 3 4 5
not so good
x 6
add to favorites
launch autoscroll
font size
0
reset
how to read this tab
guitar tuner
Tab Pro tools
  • play this tab
  • loop segment
  • change instrument
  • show fretboard
  • metronome
Autoscroll
slow
fast
+/-
esc
set tempo
stop
Contributor
Difficulty
Tuning
intermediate
D A D G B E
email any corrections/insults/questions to the email down there

Tabbed by: Shelldon the turtle

Email:i-luv-emos@hotmail.com


Tuning: drop D

this is the  riff that the the lead plays in the intro

e|-----------------------------------------------------------------------------|
B|---7--8-8-7-------7-7-8-7----------------------------------------------------| x4
G|-----------------------------------------------------------------------------|
D|-----------------------------------------------------------------------------|
A|-----------------------------------------------------------------------------|
D|-----------------------------------------------------------------------------|
(backing guitar cuts out: plays the first riff again)
(singer screams)
e|---------------7----------------------------8-----------------------------------|
B|----7-8-8-7---8-7-8-7-------7-8-8-7---8-7-8-7-----------------------------------|
G|--------------------------------------------------------------------------------|   7x
D|--------------------------------------------------------------------------------|
A|--------------------------------------------------------------------------------|
E|--------------------------------------------------------------------------------|

verse

e|-----------------------------------------------------------------------------|
B|-----------------------------------------------------------------------------|
G|-----------------------------------------------------------------------------|
D|-----------------------------------------------------------------------------|
A|-----------------------------------------------------------------------------|
D|--4-4-3-4-3-4-3-4-4----------------------------------------------------------|

sorry i cant work out the solo.. quite. heres what i could make of what the backing 
plays through it.
e|-----------------------------------------------------------------------------|
B|-----------------------------------------------------------------------------|
G|-----------------------------------------------------------------------------|
D|-----------------------------------------------------------------------------|
A|--4-4-3-4-3-4-3-4-4----------------------------------------------------------|
D|-----------------------------------------------------------------------------|

thats it i hope its correct. the intro sounds about 98% correct when played.

| /  slide up
| \  slide down
| h  hammer-on
| p  pull-off
| ~  vibrato
| +  harmonic
| x  Mute note
===============================================================================
comments
print report bad tab
1 comment total.
0 reply
WolVer!nE wrote on May 31 2008, 09:22 am

The tuning is D Standard, not dropped D, hence the transcription of the intro is one step too high. Moreover the intro lead goes: A|-7-0-8-0-8-0-8-|-7-0-8-0-8-0-8|-7-0-8-0-8-0-8|-7-0-8-0-5-0-3|
A|-7-0-8-0-8-0-8-|-7-0-8-0-8-0-8|-7-0-8-0-8-0-8|-7-0-8-0-10-0-12|
Furthermore it's doubled once a third higher: A||:-10-0-12-0-12-0-12:||-10-0-12-0-12-0-12|-10-0-12-0-8-0-7| etc.
Most of the song is missing anyway...

I want to post or [tab]
guest
You may want to rate the tab now too:
select rating
Please do not post tabs as comments. Select "correction" instead!