Oops, an error
Loading. Please wait.

Mortal Share Tab

version 3
version 3

Whole song

Interactive

9,207 views 12 this week
2 commentsread comments
1 2 3 4 5
excellent!
x 5
add to favorites
launch autoscroll
font size
0
reset
how to read this tab
guitar tuner
Autoscroll
slow
fast
+/-
esc
set tempo
stop
Help us to improve Ultimate-Guitar.com Take our survey!
×
Author
Difficulty
Tuning
advanced
D G C F A D
The text tab out there now isnt very good and i think its the wrong tuning
Here is a correct version, fairly tough in some spots...

Tuning- D Standard

Legend
h-hammer on
p-pull off
]- (look for in margins, it means play parts together)
T-tap

|--------------------------------------------------------|
|-7-0-8-0-8-0-8-7-0-8-0-8-0-8-7-0-8-0-8-0-8-7-0-8-0-5-0-3|
|--------------------------------------------------------|
|--------------------------------------------------------|
|--------------------------------------------------------|
|--------------------------------------------------------|
                                                           ]-4x
|----------------------------------------------------------|
|-7-0-8-0-8-0-8-7-0-8-0-8-0-8-7-0-8-0-8-0-8-7-0-8-0-10-0-12|
|----------------------------------------------------------|
|----------------------------------------------------------|
|----------------------------------------------------------|
|----------------------------------------------------------|

|--------------7-0-7-0-7-0-7-0-7-------------10-0-10-0-8-0-8-0-8|
|-5-0-7-0-8-0-5-----------------5-0-7-0-8-0-5-------------------|
|---------------------------------------------------------------|
|---------------------------------------------------------------|
|---------------------------------------------------------------|
|---------------------------------------------------------------|
                                                                 ]-4x
|--------------7-0-7-0-7-0-7-0-7----------------------------------|
|-5-0-7-0-8-0-5-----------------10-0-8-0-7-0-5-0-7-0-7-0-7-0-7-8-7|
|-----------------------------------------------------------------|
|-----------------------------------------------------------------|
|-----------------------------------------------------------------|
|-----------------------------------------------------------------|

|-----------------------------------------------|
|-----------------------------------------------|
|-----------------------------------------------|
|-----------------------------------------------|
|--9-10-10-10-9--10-10-10-9--10-10-10-9--10--7-5|
|-0-0--0--0-----0--0--0-----0--0--0----10--10-8-|
                                                  ]-2x
|----------------------------------------------------|
|----------------------------------------------------|
|----------------------------------------------------|
|----------------------------------------------------|
|--9-10-10-10-9--10-10-10-9--10-10-10-9--10--12-10-14|
|-0-0--0--0-----0--0--0-----8--8--8----10--10--------|

|----------------------------------------------------------------|
|-----------10----------------------------10---------------------|
|-7-9-9--7-9--9--7-9-9--7-9-----7-9-9--7-9--9--7-9-9--7-9-10-9-12|
|--------------------------10-9----------------------------------|
|----------------------------------------------------------------|
|----------------------------------------------------------------|

|-----------------------------------------------------------------|
|-----------10----------------------------10----------------------|
|-7-9-9--7-9--9--7-9-9--7-9-----7-9-9--7-9--9--7-9-9--7-9-9-10-7-7|
|--------------------------10-9-----------------------------------|
|-----------------------------------------------------------------|
|-----------------------------------------------------------------|

|--------------------------------------------------------|
|-7-0-8-0-8-0-8-7-0-8-0-8-0-8-7-0-8-0-8-0-8-7-0-8-0-5-0-3|
|--------------------------------------------------------|
|--------------------------------------------------------|
|--------------------------------------------------------|
|--------------------------------------------------------|
                                                           ]2x
|----------------------------------------------------------|
|-7-0-8-0-8-0-8-7-0-8-0-8-0-8-7-0-8-0-8-0-8-7-0-8-0-10-0-12|
|----------------------------------------------------------|
|----------------------------------------------------------|
|----------------------------------------------------------|
|----------------------------------------------------------|

|------------------------------------|(this ending comes in on the 2nd time
|-10-0-12-0-12-0-12-10-0-12-0-15-0-12| for the part above)
|------------------------------------|
|------------------------------------|
|------------------------------------|
|------------------------------------|

|-----------------------------------------------|
|-----------------------------------------------|
|-----------------------------------------------|
|-----------------------------------------------|
|--9-10-10-10-9--10-10-10-9--10-10-10-9--10--7-5|
|-0-0--0--0-----0--0--0-----0--0--0----10--10-8-|
                                                  ]-2x
|----------------------------------------------------|
|----------------------------------------------------|
|----------------------------------------------------|
|----------------------------------------------------|
|--9-10-10-10-9--10-10-10-9--10-10-10-9--10--12-10-14|
|-0-0--0--0-----0--0--0-----8--8--8----10--10--------|
|----------------------------------------------------------------|
|-----------10----------------------------10---------------------|
|-7-9-9--7-9--9--7-9-9--7-9-----7-9-9--7-9--9--7-9-9--7-9-10-9-12|
|--------------------------10-9----------------------------------|
|----------------------------------------------------------------|
|----------------------------------------------------------------|


|-----------------------------------------------------------------|
|-----------10----------------------------10----------------------|
|-7-9-9--7-9--9--7-9-9--7-9-----7-9-9--7-9--9--7-9-9--7-9-9-10-7-7|
|--------------------------10-9-----------------------------------|
|-----------------------------------------------------------------|
|-----------------------------------------------------------------|
|--------|
|--------|
|--------|
|-2-2-2-2|
|-2-2-2-2|
|-0-0-0-0|(two guitars alternate 2x a piece)

|-------------------------------------------------------|
|-------------------------------------------------------|
|-------------------------------------------------------|
|-4-7-5-4-4--10---10---7---7---9-----9-10-10-10-----10--|
|--5-5-5-------0-0--0-0-3-3-3-3-10-10----------10-10--10|
|-------------------------------------------------------|

|---------------------------------------------------------|
|---------------------------------------------------------|
|-----------------------------7---7---9---9---------------|
|-4-7-5-4-4--5---5---4---4---------------------4-----5-4-4|
|--5-5-5------7-7-7-7-7-7--7-7-7-7-7-7-7-7-7-7--5-5-5-5---|
|---------------------------------------------------------|

|--------------------------------------------------------|
|--------------------------------------------------------|
|--------------------------------------------------------|
|--10---10---7---7---9-----9-10-10-10-----10------4-7-5-4|
|----0-0--0-0-3-3-3-3-10-10----------10-10--10-----------|
|--------------------------------------------------------|

|----------------------10----10-12-12----------|
|----------8---8--7--7----------------10----8-7|
|-----------9-9--9--9----9--9--9--9-----7--7---|
|----------------------------------------------|
|----------------------------------------------|
|----------------------------------------------|
                                                 ]-2x
|-------------------------------------------------|
|-13-----13---10---10--12-----12---8--8-7-10-8-7-7|
|---14-14---14---9-------12-12---12--7---7--7-7---|
|-------------------------------------------------|
|-------------------------------------------------|
|-------------------------------------------------|

|T12-7p5h7-T14-7p5h7-T15-7p5h7-T17-7p5h7|
|---------------------------------------|
|---------------------------------------|
|---------------------------------------|
|---------------------------------------|
|---------------------------------------|

|-7---------------------------------------7-5----------2-3-0--|
|----10---8--7---10---8---7--8---5-5-5-5-------8-7--5---------|
|--9----9---9--9----9---9---9-9---5-5-5-5--7-7--7-7--4--4-4-4-|
|-------------------------------------------------------------|
|-------------------------------------------------------------|
|-------------------------------------------------------------|

|-----5-7-----------7--5--------|
|-7-8------5-5-5-5--------8--7--|
|--7-7-7-7--5-5-5-5--5--7---7-7-|
|-------------------------------|
|-------------------------------|
|-------------------------------|

|--------------7-0-7-0-7-0-7-0-7-------------10-0-10-0-8-0-8-0-8|
|-5-0-7-0-8-0-5-----------------5-0-7-0-8-0-5-------------------|
|---------------------------------------------------------------|
|---------------------------------------------------------------|
|---------------------------------------------------------------|
|---------------------------------------------------------------|
                                                                 ]-2x
|--------------7-0-7-0-7-0-7-0-7----------------------------------|
|-5-0-7-0-8-0-5-----------------10-0-8-0-7-0-5-0-7-0-7-0-7-0-7-8-7|
|-----------------------------------------------------------------|
|-----------------------------------------------------------------|
|-----------------------------------------------------------------|
|-----------------------------------------------------------------|

f'n A man...great song...great band
Suggest correction
comments
print report bad tab
2 comments total.
0 reply
Bmaister 20 wrote on December 16 2009, 10:48 am

nice :O was looking around for a correct tab for this awesome song :P thanks!!

-1 reply
Xenochrist91 37 wrote on October 30 2010, 02:04 pm

Great tab, a little confusing, but the whole thing is only Guitar 1, correct?

guest
You may want to rate the tab now too:
select rating
Wanna post a correction for this tab? Suggest correction