Oops, an error
Loading. Please wait.

Weighted Down With Sorrow Bass Tab

version 1
version 1

Whole song

Interactive

1,050 views 1 this week
1 commentread comment
1 2 3 4 5
excellent!
x 1
add to favorites
launch autoscroll
font size
0
reset
guitar tuner
Tab Pro tools
  • play this tab
  • loop segment
  • change instrument
  • show fretboard
  • metronome
Autoscroll
slow
fast
+/-
esc
set tempo
stop
Contributor
Difficulty
novice
---------------------------------------------------------------------------
		     WEIGHED DOWN WITH SORROW – Insomnium
---------------------------------------------------------------------------

Artist: Insomnium
Artist's official website: http://www.insomnium.net/

Tabbed By : Hurm

Tuning: standard 5-string (BEADG)

Chorus
G|------------------------------------------------------------------|
D|------------------------------------------------------------------|
A|---------------------------------1111111133333333------------5555-|
E|-----------------3333333333333333---------------------------------|
B|-3333333333333333--------------------------------333333333333-----|

G|------------------------------------------------------------------|
D|------------------------------------------------------------------|
A|-------5-----------------------001111111133333333------------5-5--|
E|---------1111111133333333333333-----------------------------------|
B|-333333-3----------------------------------------333333333333-3-3-|

Verse
G|------------------------------------------------------------------|
D|------------------------------------------------------------------|
A|-11111111-1111111------------5---11111111-3333333-----------------|
E|-------------------------------------------------33333333-3333333-|
B|-----------------33333333-333-333---------------------------------|

G|------------------------------------------------------------------|
D|------------------------------------------------------------------|
A|-1111111133333333--------------001111111133333333-----------------|
E|-----------------------------33-----------------------------------|
B|-----------------333355556666--------------------3333333333333311-|

Chorus
G|------------------------------------------------------------------|
D|------------------------------------------------------------------|
A|---------------------------------1111111133333333-------------555-|
E|-----------------3333333333333333---------------------------------|
B|-3333333333333333--------------------------------3333333333333----|

G|------------------------------------------------------------------|
D|------------------------------------------------------------------|
A|-------------------------------001111111133333333-------------555-|
E|---------1111111133333333333333-----------------------------------|
B|-33333333----------------------------------------3333333333333----|

Verse
G|------------------------------------------------------------------|
D|------------------------------------------------------------------|
A|-11111111-1111111------------5---11111111-3333333-----------------|
E|-------------------------------------------------33333333-3333333-|
B|-----------------33333333-333-333---------------------------------|

G|------------------------------------------------------------------|
D|------------------------------------------------------------------|
A|-1111111133333333--------------001111111133333333-----------------|
E|-----------------------------33-----------------------------------|
B|-----------------333355556666--------------------3333333333333333-|

Bass solo                10, not 1-0
G|-----------------------------------------|\
D|-----------------------------------------| \
A|-55555555\3/85555555\3/105555555---------|  \
E|--------^^^--------^^^-----------111-333-|   \
B|-----------------------------------------|    \
          5/3 is played in one note's time!      \
                                                  => 2x
G|------------------------------------------|    /
D|------------------------------------------|   /
A|-55555555\3/85555555\3/105555555-333-333/-|  /
E|--------^^^--------^^^--------------------| /
B|------------------------------------------|/

G|--------------------10-----------------12--------------------------|
D|-1212121212121210/12--12121212121210/12--12121212121212------------|
A|-------------------------------------------------------------------|
E|--------------------------------------------------------888-101010-|
B|-------------------------------------------------------------------|

G|--------------------10-----------------12--14--12--10-----------|
D|-1212121212121210/12--12121212121210/12--12--12--12--12---------|
A|----------------------------------------------------------------|
E|--------------------------------------------------------333-333-|
B|----------------------------------------------------------------|

Verse
G|------------------------------------------------------------------|
D|------------------------------------------------------------------|
A|-11111111-1111111----------------11111111-3333333-----------------|
E|-------------------------------------------------33333333-3333333-|
B|-----------------33333333-3333333---------------------------------|

G|------------------------------------------------------------------|
D|------------------------------------------------------------------|
A|-1111111133333333--------------001111111133333333-----------------|
E|-----------------------------33-----------------------------------|
B|-----------------333355556666--------------------3333333333333111-|

Chorus
G|------------------------------------------------------------------|
D|------------------------------------------------------------------|
A|---------------------------------1111111133333333-------------555-|
E|-----------------3333333333333333---------------------------------|
B|-3333333333333333--------------------------------3333333333333----|

G|------------------------------------------------------------------|
D|------------------------------------------------------------------|
A|-------------------------------001111111133333333-------------555-| 2x
E|---------1111111133333333333333-----------------------------------|
B|-33333333----------------------------------------3333333333333----|

Outro                              |song gradually slows down
G|---------------------------------|------------------------|
D|---------------------------------|------------------------|
A|-------------------------------00|1~------3~--------------|
E|---------1111111133333333333333--|------------------------|
B|-33333333------------------------|----------------3~~-----|



| /  slide up
| \  slide down
| ~  let ring

===========================================================================
comments
We did not receive enough feedback on this tab! Please rate:
print report bad tab
1 2 3 4 5
1 comment total.
0 reply
scorpionx wrote on September 15 2010, 07:17 am

More Insomnium bass lines! :)
This is great! Thanks!

I want to post or [tab]
guest
You may want to rate the tab now too:
select rating
Please do not post tabs as comments. Select "correction" instead!