Oops, an error
Loading. Please wait.

Gozate Bass

65 views 1 this week
no commentswrite comment
1 2 3 4 5
3 more votes to show rating
add to favorites
×
Save as Personal and add changes to this tab that will be seen only by you. Learn more ›
×
You can save this tab as Personal to edit and correct it or add notes. All changes will be seen only by you. Learn more »
save as personal
new!
launch autoscroll
font size
0
reset
guitar tuner
Autoscroll
slow
fast
+/-
esc
set tempo
stop
Intro (Bajo y teclado):
          G                    D
G|-------------------|-------------------|
D|-------5-2-----2---|-------5-2-----2-5-|
A|---2-5-----2-3---5-|---2-5-----2-3-----|
E|-3-----------------|-3-----------------|

         G                        D
G|-------------------|---------------------------|
D|-------5-2-----2---|-------5-2-----------------|
A|---2-5-----2-3---5-|---2-5-----2--3-3--3-5-5-5-|
E|-3-----------------|-3-------------------------|


Parte dónde van las trompetas:
   G   C   G   Em  D   G   C   Em  D   G
G|---|---|---|---|---|---|---|---|---|----|
D|---|---|---|---|---|---|---|---|---|--5-|
A|---|-3-|---|-7-|-5-|---|-3-|-7-|-5-|----|
E|-3-|---|-3-|---|---|-3-|---|---|---|-3--|


Estrofa
(Primero pongo la letra, abajo está la parte correspondiente en el bajo):

     G                         C
//Gózate en la presencia del señor tu Dios

      G     Em         D
alegrate y  dale alabanza

      G        C      G     Em     D
G|---------|-------|-----|-----|-------|
D|---------|-------|-----|-----|-------|
A|-----2-2-|-3--3--|-----|-7-7-|-5---5-|
E|-3-3-----|--0--0-|-3-3-|-----|--5-3--|


 G                  C
este es el día que hizo el Señor

    Em   D       G
regocíjate  en él

     G          C         Em     D     G
G|---------|------------|-----|-----|------|
D|---------|------------|-----|-----|-5-5--|
A|-----2-2-|-3--3-------|-7-7-|-5-5-|--5-5-|
E|-3-3-----|--0--0--3-3-|-----|-----|------|  //


Coro:
    Am         D
Con  alegría cantemos

     Bm            C
A  nuestro salvador

   Am     D      Bm     C
G|------|------|------|----------|
D|-7-7--|------|-9-9--|-10--10---|
A|--7-7-|-5-5--|--9-9-|---10--10-|
E|------|--5-5-|------|----------|


  Am        D
Con  júbilo danzemos

   Bm            C     D
Delante del Señor

    Am      D      Bm     C
G|------|------|------|-------|
D|-7-7--|------|-9-9--|-10/22-|
A|--7-7-|-5-5--|--9-9-|-------|
E|------|--5-5-|------|-------|

Esto es tres veces y viene el final

Final (con las trompetas)
Básicamente es la misma secuencia de la estrofa 3 veces más):

Esta parte va 2 veces:
      G        C      G     Em     D
G|---------|-------|-----|-----|-------|
D|---------|-------|-----|-----|-------|
A|-----2-2-|-3--3--|-----|-7-7-|-5---5-|
E|-3-3-----|--0--0-|-3-3-|-----|--5-3--|

      G          C        Em     D    G
G|---------|------------|-----|-----|------|
D|---------|------------|-----|-----|-5-5--|
A|-----2-2-|-3--3-------|-7-7-|-5-5-|--5-5-|
E|-3-3-----|--0--0--3-3-|-----|-----|------|

Esta es la 3° vez, al final es un poco diferente
      G        C      G     Em     D         G
G|---------|-------|-----|-----|-------|---------|
D|---------|-------|-----|-----|-------|---------|
A|-----2-2-|-3--3--|-----|-7-7-|-5---5-|-----2-2-|
E|-3-3-----|--0--0-|-3-3-|-----|--5-3--|-3-3-----|

        C        Em     D    G    Em    D     G
G|------------|-----|-----|----|-----|-----|-----|
D|------------|-----|-----|5-5-|-----|-----|-5-5-|
A|-3--3-------|-7-7-|-5-5-|-5--|-7-7-|-5-5-|--5--|
E|--0--0--3-3-|-----|-----|----|-----|-----|-----|

Este es el final
     Em         D           G               D
G|---------|---------|--------------|---------------|
D|---------|---------|-----5-2---2--|-----5-2---2-5-|
A|-7-7-7-7-|-5-5-5-5-|--2-5---2-3-5-|--2-5---2-3----|
E|---------|---------|-3------------|-3-------------|

      G                    D                G
G|--------------|------------------------|--------|
D|-----5-2---2--|-----5-2----------------|--------|
A|--2-5---2-3-5-|--2-5---2--3-3--3-5-5-5-|--------|
E|-3------------|-3----------------------|-3/15/3-|
Suggest correction
Give kudos to tab author, rate the tab!
1 2 3 4 5
comments
print report bad tab
guest
Wanna post a correction for this tab? Suggest correction